Ataris - Takeoffs And Landings Chords & Tabs

 

Takeoffs And Landings Chords & Tabs

Ataris Chords & Tabs

Version: 2 Type: Tab 0 ratings
1 star 2 stars 3 stars 4 stars 5 stars
comments

Takeoffs And Landings Tab

   
Band:The Ataris
Song:Takeoffs and landings 
Tabber:Sam smith

This is a great song by ataris, fairly straight forward but still an amazing song.


  Intro (guitar 1)
e|---------------------------------------------------------------------------|
B|---------------------------------------------------------------------------|
G|------------2--------------------------------------------------------------|
D|-2~~~~4--6--2~~~~7--6---4--4-4-6-7-6-2~~~~9-9-9-9-9-9-9-9------------------|
A|---------------------------------------------------------------------------|
E|---------------------------------------------------------------------------|

  Guitar 2
e|---------------------------------------------------------------------------|
B|---------------------------------------------------------------------------|
G|-------------------------------2-2-2-x-2-2-2-x-2-2-2-x-2-2-2-x-4-4-4-x-4-4-|
D|-2-2-x-2-2-2-x-2-2-2-x-2-2-2-x-2-2-2-x-2-2-2-x-2-2-2-x-2-2-2-x-4-4-4-x-4-4-|
A|-2-2-x-2-2-2-x-2-2-2-x-2-2-2-x-0-0-0-x-0-0-0-x-0-0-0-x-0-0-0-x-2-2-2-x-2-2-|
E|-0-0-x-0-0-0-x-0-0-0-x-0-0-0-x---------------------------------------------|

e|---------------------------------------------------------------------------|
B|-------------------12-12-12-12-12-12-12-12-10-10-10-10-10-10-10-10---------|
G|-4-x-4-4-4-x-4-4-4-x--x--x--x--x--x--x--x--x--x--x--x--x--x--x--x----------|
D|-4-x-4-4-4-x-4-4-4-9--9--9--9--9--9--9--9--7--7--7--7--7--7--7--7----------|
A|-2-x-2-2-2-x-2-2-2---------------------------------------------------------|
E|---------------------------------------------------------------------------|

  Then (Guitar 1)
e|---------------------------------------------------------------------------|
B|-9--7--5---10--9--10---7--9--10--12--12--10--------------------------------|
G|-x--x--x---x---x--x----x--x--x---x---x---x---------------------------------|
D|-6--4--2---7---6--7----4--6--7---9---9---7---------------------------------|
A|---------------------------------------------------------------------------|
E|---------------------------------------------------------------------------|

  Guitar 2
e|---------------------------------------------------------------------------|
B|---------------------------------------------------------------------------|
G|-------------------------------2-2-2-x-2-2-2-x-2-2-2-x-2-2-2-x-4-4-4-x-4-4-|
D|-2-2-x-2-2-2-x-2-2-2-x-2-2-2-x-2-2-2-x-2-2-2-x-2-2-2-x-2-2-2-x-4-4-4-x-4-4-|
A|-2-2-x-2-2-2-x-2-2-2-x-2-2-2-x-0-0-0-x-0-0-0-x-0-0-0-x-0-0-0-x-2-2-2-x-2-2-|
E|-0-0-x-0-0-0-x-0-0-0-x-0-0-0-x---------------------------------------------|

e|---------------------------------------------------------------------------|
B|---------------------------------------------------------------------------|
G|-4-x-4-4-4-x-4-4-4-x-2~~~~-------------------------------------------------|
D|-4-x-4-4-4-x-4-4-4-x-2~~~~-------------------------------------------------|
A|-2-x-2-2-2-x-2-2-2-x-0~~~~-------------------------------------------------|
E|---------------------------------------------------------------------------|

  Verse (both guitars)
e|---------------------------------------------------------------------------|
B|---------------------------------------------------------------------------|
G|--------2-----4-----2------------------------------------------------------|
D|--2-----2-x16-4-x16-2-x16--------------------------------------------------|
A|--2-x16-0-----2-----0------------------------------------------------------|
E|--0------------------------------------------------------------------------|
P.M:----------------------------------
[ Tab from: http://www.guitartabs.cc/tabs/a/ataris/takeoffs_and_landings_tab_ver_2.html ]
   Then
e|---------------------------------------------------------------------------|
B|---------------------------------------------------------------------------|
G|------2----4----2----------------------------------------------------------|
D|-2----2-x8-4-x8-2-x8-------------------------------------------------------|
A|-2-x8-0----2----0----------------------------------------------------------|
E|-0-------------------------------------------------------------------------|

  Bridge (guitar 1)
e|---------------------------------------------------------------------------|
B|---------------------------------------------------------------------------|
G|-11-----14-----------------------------------------------------------------|
D|-x--x8--x-x8----Then joins in with other guitar----------------------------|
A|-9------12-----------------------------------------------------------------|
E|---------------------------------------------------------------------------|

  Guitar 2
e|---------------------------------------------------------------------------|
B|---------------------------------------------------------------------------|
G|--------2----------------2-------------------------------------------------|
D|--4-----2~~~~--2----4----2-x16---------------------------------------------|
A|--4-x32-0------2-x8-4-x8-0-------------------------------------------------|
E|--2------------0----2------------------------------------------------------|
'If you could go anywhere right now, where would you go and would you miss me
when you get there, there's no place that i would rather be.'

  Chorus (both guitars)
e|---------------------------------------------------------------------------|
B|---------------------------------------------------------------------------|
G|-------2-----4-----2-------------------------------------------------------|
D|-2-----2-x16-4-x16-2-x16---------------------------------------------------|
A|-2-x16-0-----2-----0-------------------------------------------------------|
E|-0-------------------------------------------------------------------------|

Then second guitar does this: E|-12\--|

  Solo (guitar 1)
e|---------------------------------------------------------------------------|
B|---------------------------------------------------------------------------|
G|---------------------------------------------------------------------------|
D|-4-4-4-4/6-6-6-6\4-4-4-4\2-2-2-2/7-7-7-7-\6-6-6-6\4-4-4-4\2-2-2-2----------|
A|---------------------------------------------------------------------------|
E|---------------------------------------------------------------------------|

e|---------------------------------------------------------------------------|
B|---------------------------------------------------------------------------|
G|---------------------------------------------------------------------------|
D|-9\7-6-4-6-4---------------------------------------------------------------|x2
A|---------------------------------------------------------------------------|
E|---------------------------------------------------------------------------|

  Guitar 2
e|---------------------------------------------------------------------------|
B|---------------------------------------------------------------------------|
G|-------------------------------2-2-2-x-2-2-2-x-2-2-2-x-2-2-2-x-4-4-4-x-4-4-|
D|-2-2-x-2-2-2-x-2-2-2-x-2-2-2-x-2-2-2-x-2-2-2-x-2-2-2-x-2-2-2-x-4-4-4-x-4-4-|
A|-2-2-x-2-2-2-x-2-2-2-x-2-2-2-x-0-0-0-x-0-0-0-x-0-0-0-x-0-0-0-x-2-2-2-x-2-2-|
E|-0-0-x-0-0-0-x-0-0-0-x-0-0-0-x---------------------------------------------|

e|---------------------------------------------------------------------------|
B|---------------------------------------------------------------------------|
G|-4-x-4-4-4-x-4-4-4-x-2~~~~-------------------------------------------------|
D|-4-x-4-4-4-x-4-4-4-x-2~~~~-------------------------------------------------|
A|-2-x-2-2-2-x-2-2-2-x-0~~~~-------------------------------------------------|
E|---------------------------------------------------------------------------|

Please make corrections or comments on this tab or email me at: lessthanjake_42@hotmail.com

Thanx

| /  slide up
| \  slide down
| x  Mute note

===============================================================================
Comments