Ataris - So Long Astoria Chords & Tabs

 

So Long Astoria Chords & Tabs

Ataris Chords & Tabs

Version: 1 Type: Tab 0 ratings
1 star 2 stars 3 stars 4 stars 5 stars
comments

So Long Astoria Tab

Ataris - So Long, Astoria 
By:Andrew Mcshan (Guitarguyx182@aol.com)

this is my favorite song off their new album, which is titled 
So Long, Astoria : )~ 

Intro 
(Guitar 1)
|---------------------------------------------------------------------------| 
|---------------------------------------------------------------------------| 
|--7-7-7-7-7-7-7-7----------------------------------------------------------| 
|--7-7-7-7-7-7-7-7-5-5-5-5-5-5-5-5-9-9-9-9-9-9-9-9-7-7-7-7-7-7-7-7-7-7-7-7--| 
|--5-5-5-5-5-5-5-5-5-5-5-5-5-5-5-5-9-9-9-9-9-9-9-9-7-7-7-7-7-7-7-7-7-7-7-7--| 
|------------------3-3-3-3-3-3-3-3-7-7-7-7-7-7-7-7-5-5-5-5-5-5-5-5-5-5-5-5--| 
(Guitar 2) 
|---------------------------------------------------------------------------| 
|---------------------------------------------------------------------------| 
|--7---7---7---7---6---6---6---6---7---7---7---7---9---9---9---9------------| 
|----7---7---7---7---7---7---7---7---7---7---7---7---7---7---7---7----------| 
|---------------------------------------------------------------------------| 
|---------------------------------------------------------------------------| 

|---------------------------------------------------------------------------| 
|---------------------------------------------------------------------------| 
|-----------------------------------------------------------6---------------| 
|--4-5-7-----4-5-7----4-5-7----7-6-4---4-5-7--4-5-7--4-5-7--7---------------| 
|------------------------------------7--------------------------------------| 
|---------------------------------------------------------------------------| 

Verse 
(Guitar 1)
|---------------------------------------------------------------------------| 
|---------------------------------------------------------------------------| 
|--7-7-7-7-7-7-7-7----------------------------------------------------------| 
|--7-7-7-7-7-7-7-7-5-5-5-5-5-5-5-5-9-9-9-9-9-9-9-9-7-7-7-7-7-7-7-7-7-7-7-7--| 
|--5-5-5-5-5-5-5-5-5-5-5-5-5-5-5-5-9-9-9-9-9-9-9-9-7-7-7-7-7-7-7-7-7-7-7-7--| 
|------------------3-3-3-3-3-3-3-3-7-7-7-7-7-7-7-7-5-5-5-5-5-5-5-5-5-5-5-5--|  
(Guitar 2)
|------------------------------------------------| 
|------------------------------------------------| 
|--7-7-7-7-7-7-7-7-7/6--7-7-7-7-7-7/6------------| 
|--x-x-x-x-x-x-x-x-x/x--x-x-x-x-x-x/x------------| 
|--5-5-5-5-5-5-5-5-5/4--5-5-5-5-5-5/4------------| 
|------------------------------------------------| 
[ Tab from: http://www.guitartabs.cc/tabs/a/ataris/so_long_astoria_tab.html ]
Chorus 
(Guitar 1)
|--------------------------------------------------------------------------| 
|--------------------------------------------------------------------------| 
|--9-9-9-------------4-4-4-4-9-9-9---------------------4-4-4-9-9-9---------| 
|--9-9-9-4-4-4-5-5-5-4-4-4-4-9-9-9---2-2-2-4-4-4-5-5-5-4-4-4-9-9-9-2-2-5-7-| 
|--7-7-7-4-4-4-5-5-5-2-2-2-2-7-7-7---2-2-2-4-4-4-5-5-5-2-2-2-7-7-7-2-2-5-7-| 
|--------2-2-2-3-3-3-----------------0-0-0-2-2-2-3-3-3-------------0-0-3-5-| 
(Guitar 2) 
|---------------------------------------------------------| 
|---------------------------------------------------------| 
|--7-7-7-9-9-9--11-11-11-7-7-7-7-9-9-9-9-11-11-11-11------|
|--x-x-x-x-x-x--x--x--x--x-x-x-x-x-x-x-x-x--x--x--x-------| 
|--5-5-5-7-7-7--9--9--9--5-5-5-5-7-7-7-7-9--9--9--9-------| 
|---------------------------------------------------------| 

Bridge 
(Guitar 1) 
|---------------------------------------------------------| 
|---------------------------------------------------------| 
|--7-7-7-7-7-7-7-6-6-6-6-6--------------------------------| 
|--7-7-7-7-7-7-7-6-6-6-6-6-9-9-9-9-9-7-7-7-7-7-7----------| 
|--5-5-5-5-5-5-5-4-4-4-4-4-9-9-9-9-9-7-7-7-7-7-7----------| 
|--------------------------7-7-7-7-7-5-5-5-5-5-5----------| 
(Guitar 2) 
|---------------------------------------------------------| 
|---------------------------------------------------------| 
|--7-7-7-7-7-7-7/9/6-6-6-6-6-6-6/7/4-4-4-4-4-4-4/6--------| 
|--x-x-x-x-x-x-x-x-x-x-x-x-x-x-x-x-x-x-x-x-x-x-x-x--------| 
|--5-5-5-5-5-5-5/7/4-4-4-4-4-4-4/5/2-2-2-2-2-2-2/4--------| 
|---------------------------------------------------------| 

Outro 
(Guitar 1) 
|---------------------------------------------------------------------------| 
|---------------------------------------------------------------------------| 
|--7-7-7-7-7-7-6-6-6-6-6-6----------------------9-9-9-9-9-9-----------------| 
|--7-7-7-7-7-7-6-6-6-6-6-6-9-9-9-9-9--7-7-7-7-7-9-9-9-9-9-9-7-7-7-7-7-7-7-7-| 
|--5-5-5-5-5-5-4-4-4-4-4-4-9-9-9-9-9--7-7-7-7-7-7-7-7-7-7-7-7-7-7-7-7-7-7-7-| 
|--------------------------7-7-7-7-7--5-5-5-5-5-------------5-5-5-5-5-5-5-5-| 

|---------------------------------------------------------------------------| 
|---------------------------------------------------------------------------| 
|--7-7-7-7-7-7-6-6-6-6-6-6-4-4-4-4-4-4--------------------------------------| 
|--7-7-7-7-7-7-6-6-6-6-6-6-4-4-4-4-4-4-7-7-7-7-7-7-5-5-5-5-5-5-5-5-5-5-5-5--| 
|--5-5-5-5-5-5-4-4-4-4-4-4-2-2-2-2-2-2-7-7-7-7-7-7-5-5-5-5-5-5-5-5-5-5-5-5--| 
|--------------------------------------5-5-5-5-5-5-3-3-3-3-3-3-3-3-3-3-3-3--| 
(Guitar 2) 
|-----------------------------------------------------------------| 
|-----------------------------------------------------------------| 
|--7-7-7-7-7-7-6-6-6-6-6-4-4-4-4-4-4-4----------------------------| 
|--x-x-x-x-x-x-x-x-x-x-x-x-x-x-x-x-x-x-7-7-7-7-7-7-7-7-7-7--------|
|--5-5-5-5-5-5-4-4-4-4-4-2-2-2-2-2-2-2-7-7-7-7-7-7-7-7-7-7--------| 
|--------------------------------------5-5-5-5-5-5-5-5-5-5--------| 

|-----------------------------------------------------------------| 
|-----------------------------------------------------------------| 
|--7-7-7-7-7-7-6-6-6-6-6-4-4-4-4-4-4-4--------7-7-6-6-7-7-6-6-7-7-| 
|--x-x-x-x-x-x-x-x-x-x-x-x-x-x-x-x-x-x-7-7-7--x-x-x-x-x-x-x-x-x-x-| 
|--5-5-5-5-5-5-4-4-4-4-4-2-2-2-2-2-2-2-7-7-7--5-5-4-4-5-5-4-4-5-5-| 
|--------------------------------------5-5-5----------------------|
Comments