Ataris - San Dimas High School Football Rules Chords & Tabs

 

San Dimas High School Football Rules Chords & Tabs

Ataris Chords & Tabs

Version: 4 Type: Tab 0 ratings
1 star 2 stars 3 stars 4 stars 5 stars
comments

San Dimas High School Football Rules Tab

   
=======================================================================
	  San Dimas High School Football Rules - The Ataris
=======================================================================

By:  CoINGIRIEsS@aol.com
     Gary(TheAtaris07@aol.com)

PM- Palm mute
~ let ring
/- slide

Intro:  Guitar 1   Play 2x
e|--------------------------------------------------------------------|
B|--------------------------------------------------------------------|
G|-5--4--0~---5--4--0~---5--4--0~-------------------------------------|
D|-5--5--5~---2--2--2~---3--3--3~---5--5--5--5--5-5-5-5-5-5-5-5-------|
A|-3--3--3~-------------------------5--5--5--5--5-5-5-5-5-5-5-5-------|
E|----------------------------------3--3--3--3--3-3-3-3-3-3-3-3-------|

Intro:  Guitar 2
e|--------------------------------------------------------------------|
b|--------------------------------------------------------------------|
g|5-5-5-5-5-5-5-5-5-5-------------------------------------------------|
d|5-5-5-5-5-5-5-5-5-5-2-2-2-2-2-2-2-2-2-2-3-3-3-3-3-3-3-3-3-3---------|
a|3-3-3-3-3-3-3-3-3-3-2-2-2-2-2-2-2-2-2-2-3-3-3-3-3-3-3-3-3-3---------|
e|--------------------0-0-0-0-0-0-0-0-0-0-1-1-1-1-1-1-1-1-1-1---------|

Intro:  Guitar 2 Cont'd
e|--------------------------------------------------------------------|
b|--------------------------------------------------------------------|
g|--------------------5-5-5-5-5-5-5-5-5-5-9-9-9-9-9-9-9-9-9-9---------|
d|5-5-5-5-5-5-5-5-5-5-5-5-5-5-5-5-5-5-5-5-9-9-9-9-9-9-9-9-9-9---------|
a|5-5-5-5-5-5-5-5-5-5-3-3-3-3-3-3-3-3-3-3-7-7-7-7-7-7-7-7-7-7---------|
e|3-3-3-3-3-3-3-3-3-3-------------------------------------------------|

Intro:  Guitar 2 Cont'd
e|--------------------------------------------------------------------|
b|--------------------------------------------------------------------|
g|10-10-10-10-10-10-10-10-10-10---------------------------------------|
d|10-10-10-10-10-10-10-10-10-10-5-5-5-5-5-5-5-5-5-5-------------------|
a|-8--8--8--8--8--8--8--8--8--8-5-5-5-5-5-5-5-5-5-5-------------------|
e|------------------------------3-3-3-3-3-3-3-3-3-3-------------------|

Verse:  Guitar 1  Use Up and Down strokes when Palm Muting
e|--------------------------------------------------------------------|
b|--------------------------------------------------------------------|
g|5-55555555555555----------------------------------------------------|
d|5-55555555555555-2-22222222222222-3-33333333333333-5-55555555555555-|
a|3-33333333333333-2-22222222222222-3-33333333333333-5-55555555555555-|
e|-----------------0-00000000000000-1-11111111111111-3-33333333333333-|
    PM~~~~~~~~~~~~   PM~~~~~~~~~~~~   PM~~~~~~~~~~~~   PM~~~~~~~~~~~~
Night.........dream...........disneyland..........rides................

Verse:  Guitar 2 starts up when Kris says "line..."
e|--------------------------------------------------------------------|
b|--------------------------------------------------------------------|
g|5-44544544544544-5-44544544544544-5-445445445445--------------------|
d|x-xxxxxxxxxxxxxx-x-xxxxxxxxxxxxxx-x-xxxxxxxxxxxx----333333-5555-6-7-|
a|3-22322322322322-3-22322322322322-3-223223223223----333333-5555-6-7-|
e|----------------------------------------------------111111-3333-4-5-|
 line............house............stars.............heartbeat.....arms

Verse:  Guitar 1 Cont'd
e|--------------------------------------------------------------------|
b|--------------------------------------------------------------------|
g|5-55555555555555----------------------------------------------------|
d|5-55555555555555-2-22222222222222-3-33333333333333--333333-5555-6-7-|
a|3-33333333333333-2-22222222222222-3-33333333333333--333333-5555-6-7-|
e|-----------------0-00000000000000-1-11111111111111--111111-3333-4-5-|
    PM~~~~~~~~~~~~   PM~~~~~~~~~~~~   PM~~~~~~~~~~~~
line.............house............stars.............heartbeat.....arms

Verse:  (Cont'd)Both Guitars
e|--------------------------------------------------------------------|
b|--------------------------------------------------------------------|
g|----------------------------55555555555555--------------------------|
d|777777777777-33333333333333-55555555555555-55555555555555-33-77777--|
a|777777777777-33333333333333-33333333333333-55555555555555-33-77777--|
e|555555555555-11111111111111----------------33333333333333-11-55555--|
  .............rainbow.......two...........wrong...............Like....
[ Tab from: http://www.guitartabs.cc/tabs/a/ataris/san_dimas_high_school_football_rules_tab_ver_4.html ]
Verse:  (Cont'd)Guitar
e|--------------------------------------------------------------------|
b|--------------------------------------------------------------------|
g|-------------55555555555555-----------------------------------------|
d|333333333333-55555555555555-5555555555555---------------------------|
a|333333333333-33333333333333-5555555555555---------------------------|
e|111111111111----------------3333333333333---------------------------|
  hotel room...kiss..........high school...............................

Verse:  (Cont'd)Guitar 2
e|--------------------------------------------------------------------|
B|--------------------------------------------------------------------|
G|--5-5-5-5-5-5-5-5-10/9/-7--7-7-7-7-7-7-7----------------------------|
D|--x-x-x-x-x-x-x-x--x/x/-x--x-x-x-x-x-x-x----------------------------|
A|--3-3-3-3-3-3-3-3--8/7/-5--5-5-5-5-5-5-5----------------------------|
E|--------------------------------------------------------------------|
...kiss............for a high school...................................

Chorus:  Both Guitars
e|--------------------------------------------------------------------|
b|--------------------------------------------------------------------|
g|-------------------------------5555---------------------------------|
d|3-333333333333-5-555555555555--5555-5555-7777-5555-33333333-5-------|
a|3-333333333333-5-555555555555--3333-5555-7777-5555-33333333-5-------|
e|1-111111111111-3-333333333333-------3333-5555-3333-11111111-3-------|
    PM~~~~~~~~~~   PM~~~~~~~~~~
 exist.........things...........free........................too good...

Intro:  Play 2x

Verse:  Play it all once(play the 2nd octave part right after Kris sings
"and do the things you wanna do...")

Chorus: Play Once

Bridge:  Guitar 1  Play 2x
e|--------------------------------------------------------------------|
B|--------------------------------------------------------------------|
G|-5-5--4--0--0-0-0-0---5-5--4--0--0-0-0-0---5-5--4--0--0-0-0-0-------|
D|-5-5--5--5--5-5-5-5---2-2--2--2--2-2-2-2---3-3--3--3--3-3-3-3-------|
A|-3-3--3--3--3-5-3-3-------------------------------------------------|
E|--------------------------------------------------------------------|

Guitar 1(continued) (play slow & soft):
e|--------------------------------------------------------------------|
B|--------------------------------------------------------------------|
G|--------------------------------------------------------------------|
D|--5-5--5-5--5-5-5-5-5-5-5-5-----------------------------------------|
A|--5-5--5-5--5-5-5-5-5-5-5-5-----------------------------------------|
E|--3-3--3-3--3-3-3-3-3-3-3-3-----------------------------------------|

Bridge:  Guitar 2  Play when guitar 1 is starting the 2nd time
e|--------------------------------------------------------------------|
b|--------------------------------------------------------------------|
g|5-4------------5-4------------5-4-----------------------------------|
d|----5--------------5--------------5---------------------------------|
a|--------------------------------------------------------------------|
e|--------------------------------------------------------------------|

Outro:  Guitar 1  Play 4x
e|--------------------------------------------------------------------|
b|--------------------------------------------------------------------|
g|5----9----10----7----4---5----9----10----12-----4-------------------|
d|x----x-----x----x----x---x----x-----x-----x-----x-------------------|
a|3----7-----8----5----2---3----7-----8----10-----2-------------------|
e|--------------------------------------------------------------------|

Outro:  Guitar 2  Play 1 time when guitar 1 is starting its 3rd time
e|--------------------------------------------------------------------|
b|--------------------------------------------------------------------|
g|12-12-10--12-12/10/9--12-12/10/9--7/9-------------------------------|
d|-x--x--x---x--x/-x/x---x--x/-x/x--x/x-------------------------------|
a|10-10--8--10-10/-8/7--10-10/-8/7--5/7-------------------------------|
e|--------------------------------------------------------------------|

Outro:  Guitar 3  (Play guitar 2's intro part)

Outro:  Guitar 2 plays this part right after fast drum roll
e|--------------------------------------------------------------------|
B|--------------------------------------------------------------------|
G|-5--4--0~---5--4--0~---5--4--0~---------------------------5---------|
D|-5--5--5~---2--2--2~---3--3--3~---5-5-5-5-5-5-5-5-5-5-5-5-5---------|
A|-3--3--3~-------------------------5-5-5-5-5-5-5-5-5-5-5-5-3---------|
E|----------------------------------3-3-3-3-3-3-3-3-3-3-3-3-----------|

With a little help I have managed to get a really good tab up of this
song.  I pretty sure that the rhythm is right because I watched them
play it live and that's how I remember it(especially the intro).
Thanks for the help.
=======================================================================
Comments