Ataris - Nights The Lights Went Out In Nyc Chords & Tabs

 

Nights The Lights Went Out In Nyc Chords & Tabs

Ataris Chords & Tabs

Version: 2 Type: Tab 0 ratings
1 star 2 stars 3 stars 4 stars 5 stars
comments

Nights The Lights Went Out In Nyc Tab

The Night That The Lights Went Out In NYC
The Ataris
Spider-man 2 Soundtrack
Tabbed by Josh


Great song from the soundtrack of the greatest movie ever. There weren't any good tabs,
so I wasted a night to sit on my ass and tab it out.  I don't know how accurate it is,
but it sounds ok. Post any corrections/suggestions. But go easy, I've never tabbed
anything by ear before.



INTRO    x2

|-----------------------------------------------------|
|-----------------------------------------------------|
|-----------------------------------------------------|
|-----------------------6-6-7777----------------------|
|---0h4h5s4----0h4h5s4--6-6-7777----------------------|
|--0--------0-0---------4-4-5555----------------------|     



VERSE

For all I can hear, they just adlib the intro



PRECHORUS
[ Tab from: http://www.guitartabs.cc/tabs/a/ataris/nights_the_lights_went_out_in_nyc_tab_ver_2.html ]
|-----------------------------------|
|---------------------------6~------|
|---------------------------7~------|
|--4-----7------4-----7-----7~------|
|--4-----7------4-----7-----5~------|
|--2-----5------2-----5-------------|



CHORUS    x2

|--------------------------------|
|--------------------------------|
|--------------------------------|
|--2-----4-----7-----5-----------|
|--2-----4-----7-----5-----------|
|--0-----2-----5-----3-----------|



BRIDGE    x2

Guitar 1
|----------------------------------|
|----------------------------------|
|--6--------------6----------------|
|--6-----4--------6-----4----------|
|--4-----4--------4-----4----------|
|--------2--------------2----------|
   ^during the first chord, Guitar 2 plays this little riff

|--------------------------------|
|--------------------------------|
|--------------------------------|
|--11---12----11----12-----------|  I can't quite hear the rest
|--------------------------------|
|--------------------------------|



Done.

~Josh
Comments