Ataris - Make It Last Chords & Tabs

 

Make It Last Chords & Tabs

Ataris Chords & Tabs

Version: 1 Type: Tab 0 ratings
1 star 2 stars 3 stars 4 stars 5 stars
comments

Make It Last Tab

   
The * Ataris  ~  Make it Last
[ Tab from: http://www.guitartabs.cc/tabs/a/ataris/make_it_last_tab.html ]
Intro: Use up and down strokes when palm muting
e|------------------------------------------------------------------------|   
b|------------------------------------------------------------------------|   
g|----------------------------------------5-555555555555555-5-7-----------|  
d|5-555555555555555-5-2-222222222222222-2-5-555555555555555-5-7-----------|
a|5-555555555555555-5-2-222222222222222-2-3-333333333333333-3-5-----------|
e|3-333333333333333-3-0-000000000000000-0---------------------------------| 
    PM~~~~~~~~~~~~~     PM~~~~~~~~~~~~~     PM~~~~~~~~~~~~~
Intro: (Cont'd)
e|------------------------------------------------------------------------|
b|------------------------------------------------------------------------|
g|777777-77777777---------------------------------------------------------|
d|777777-77777777---------------------------------------------------------|
a|555555-55555555---------------------------------------------------------|
e|------------------------------------------------------------------------|
  PM~~~~
Verse: 
e|------------------------------------------------------------------------|
b|------------------------------------------------------------------------|
g|------------------------------55555555555555-77777777777777-------------| 
d|55555555555555-22222222222222-55555555555555-77777777777777-------------|
a|55555555555555-22222222222222-33333333333333-55555555555555-------------|
e|33333333333333-00000000000000-------------------------------------------|  
Chorus: Guitar 1 
e|------------------------------------------------------------------------|
b|------------------------------------------------------------------------|
g|--------------5-5-5-5-5-5-5---------------7-7-7-7-7-7-7-----------------|
d|2-2-2-2-2-2-2-5-5-5-5-5-5-5-5-5-5-5-5-5-5-7-7-7-7-7-7-7-----------------|
a|2-2-2-2-2-2-2-3-3-3-3-3-3-3-5-5-5-5-5-5-5-5-5-5-5-5-5-5-----------------|
e|0-0-0-0-0-0-0---------------3-3-3-3-3-3-3-------------------------------|
Chorus: Guitar 1 Cont'd
e|------------------------------------------------------------------------|
b|------------------------------------------------------------------------|
g|--------------5-5-5-5-5-5-5-7-7-7-7-7-7-7-7-7-7-7-7-7-7-----------------|
d|2-2-2-2-2-2-2-5-5-5-5-5-5-5-7-7-7-7-7-7-7-7-7-7-7-7-7-7-----------------|
a|2-2-2-2-2-2-2-3-3-3-3-3-3-3-5-5-5-5-5-5-5-5-5-5-5-5-5-5-----------------|
e|0-0-0-0-0-0-0-----------------------------------------------------------|



Verse: Play whole part 2x
e|------------------------------------------------------------------------|
b|------------------------------------------------------------------------|
g|----------------------------------------5-555555555555555-5-7-----------|
d|5-555555555555555-5-2-222222222222222-2-5-555555555555555-5-7-----------|
a|5-555555555555555-5-2-222222222222222-2-3-333333333333333-3-5-----------|
e|3-333333333333333-3-0-000000000000000-0---------------------------------|
    PM~~~~~~~~~~~~~     PM~~~~~~~~~~~~~     PM~~~~~~~~~~~~~
 Verse: (Cont'd)
e|------------------------------------------------------------------------|
b|------------------------------------------------------------------------|
g|777777-7-7-7------------------------------------------------------------|
d|777777-7-7-7------------------------------------------------------------|
a|555555-5-5-5------------------------------------------------------------|
e|------------------------------------------------------------------------|
  PM~~~~
 Repeat Chorus
 Solo Thingy: 
e|------------------------------------------------------------------------|
b|------------------------------------------------------------------------|
g|---------------9--12-11-11-12/11-5--5--5-5--5-5--5-7--7--7-7-7--5-4-----|
d|5--5--5-5--5-5-x---x--x--x--x/-x-5--5--5-5--5-5--5-7--7--7-7-7--5-4-----|
a|5--5--5-5--5-5-7--10--9--9-10/-9-3--3--3-3--3-3--3-5--5--5-5-5--3-2-----|
e|3--3--3-3--3-3----------------------------------------------------------|
 Solo Thingy Cont'd:
e|------------------------------------------------------------------------|
b|------------------------------------------------------------------------|
g|---------------9--12-11-11-12/11-5--5--5-5--5-5--5-7-7-7-7--7-7-7-7-----|
d|5--5--5-5--5-5-x---x--x--x--x/-x-5--5--5-5--5-5--5-7-7-7-7--7-7-7-7-----|
a|5--5--5-5--5-5-7--10--9--9-10/-9-3--3--3-3--3-3--3-5-5-5-5--5-5-5-5-----|
e|3--3--3-3--3-3----------------------------------------------------------|
 Repeat Chorus
 End on:
e|------------------------------------------------------------------------| 
B|------------------------------------------------------------------------|
G|------------------------------------------------------------------------|
D|---5x-------------------------------------------------------------------|
A|---5x-------------------------------------------------------------------|
E|---3x-------------------------------------------------------------------|
Comments