Ataris - In This Diary Chords & Tabs

 

In This Diary Chords & Tabs

Ataris Chords & Tabs

Version: 1 Type: Tab 0 ratings
1 star 2 stars 3 stars 4 stars 5 stars
comments

In This Diary Tab

   
#----------------------------------PLEASE NOTE---------------------------------#
#This file is the author's own work and represents their interpretation of the #
#song. You may only use this file for private study, scholarship, or research. #
#------------------------------------------------------------------------------##

Band: The Ataris 
Song: In This Diary 
Album: So Long Astoria 
Tuning - half a step down (Eb, Ab, Db, Gb, Bb, Eb) 
Aaron thunder2709@lycos.com 

Intro 
Guitar 1 (clean) 
e--------------------------------- 
B--------------------------------- 
G-6-x16-9-x7-6-x9-7-x7-6-x9-7-x16- 
D-7-----9----7----7----7----7----- 
A-7-----7----7----5----5----5----- 
E-5------------------------------- 
PM........................... 

Verse 1 
Guitar 1 (distortion) 
e------------------------------------------------------------------- 
B------------------------------------------------------------------- 
G-------------------------------7-x16-------------------------7-x32- 
D-4-x16-----2-x16-----7-x16-----7---------4-x16-----2-x16-----7----- 
A-4---------2---------7---------5---------4---------2---------5----- 
E-2---------0---------5-------------------2---------0--------------- 
PM................................................... 

Guitar 2 (clean) (distortion) 
e----------------------------------------------------------------- 
B----------------------------------------------------------------- 
G-6---6---6---6---4---4---4---4---7---7---6---6---7---7---6---6--- 
D---7---7---7---7---7---7---7---7---7---7---7---7---7---7---7---7- 
A----------------------------------------------------------------- 
E----------------------------------------------------------------- 
Choruses Lot of Know 

Guitar 1 (cont...) 
e------------------------------------------------------------------- 
B------------------------------------------------------------------- 
G-------------------------------7-x16-------------------------7-x32- 
D-4-x16-----2-x16-----7-x16-----7---------4-x16-----2-x16-----7----- 
A-4---------2---------7---------5---------4---------2---------5----- 
E-2---------0---------5-------------------2---------0--------------- 
PM................................................... 


Guitar 2 (clean) (distortion) 
e----------------------------------------------------------------- 
B----------------------------------------------------------------- 
G-6---6---6---6---9---9---6---6---7---7---6---6---7---7---6---6--- 
D---7---7---7---7---7---7---7---7---7---7---7---7---7---7---7---7- 
A----------------------------------------------------------------- 
E----------------------------------------------------------------- 


Pre-Chorus 1 
Guitar 1 (distortion) 
e----------------- 
B----------------- 
G-4-x16-----7-x16- 
D-4---------7----- 
A-2---------5----- 
E----------------- 
I guess Down 

Guitar 2 (distortion) 
e-------------------------- 
B-------------------------- 
G-4-x7-----7-x17-----11-x8- 
D-x--------x---------x----- 
A-2--------5---------9----- 
E-------------------------- 
I Guess It 
Chorus 1 
Guitar 1 (distortion) 
e------------------------------------------------------------------- 
B------------------------------------------------------------------- 
G-------------------------------7-x8--------------------------7-x16- 
D-4-x8------2-x8------7-x8------7---------4-x8------2-x8------7----- 
A-4---------2---------7---------5---------4---------2---------5----- 
E-2---------0---------5-------------------2---------0--------------- 


Guitar 2 (distortion) 
e------------------------------------------------------------- 
B------------------------------------------------------------- 
G-------------------------------7-x8-------------------------- 
D-4-x8------2-x8------7-x8------7---------4-x8------2-x8------ 
A-4---------2---------7---------5---------4---------2--------- 
E-2---------0---------5-------------------2---------0--------- 


e----------------- 
B----------------- 
G-6---6---7---6--- 
D---7---7---7---7- 
A----------------- 
E----------------- 


Guitar 1 (cont...) 
e------------------------------------------------------------ 
B------------------------------------------------------------ 
G-------------------------------7-x8------------------------- 
D-4-x8------2-x8------7-x8------7---------4-x8-------2-x8---- 
A-4---------2---------7---------5---------4----------2------- 
E-2---------0---------5-------------------2----------0------- 


Guitar 2 (cont...) 
e------------------------------------------------------- 
B------------------------------------------------------- 
G-------------------------------7-6-4-7-11-x7------9-x9- 
D-4-x8------2-x8------7-x8------x-x-x-x-x----------x---- 
A-4---------2---------7---------5-4-2-5-9----------7---- 
E-2---------0---------5--------------------------------- 



Guitar 1 (cont...) 
e--------------------- 
B--------------------- 
G-4-x7-6-x9-4-x9-6-x7- 
D-7----7----7----7---- 
A-7----7----7----7---- 
E--------------------- 
PM................ 


Verse 2 
Guitar 1 (distortion) 
e------------------------------------------------------------------- 
B------------------------------------------------------------------- 
G-------------------------------7-x16-------------------------7-x32- 
D-4-x16-----2-x16-----7-x16-----7---------4-x16-----2-x16-----7----- 
A-4---------2---------7---------5---------4---------2---------5----- 
E-2---------0---------5-------------------2---------0--------------- 
PM................................................... 


Guitar 2 (clean) (distortion) 
e----------------------------------------------------------------- 
B----------------------------------------------------------------- 
G-6---6---6---6---9---9---6---6---7---7---6---6---7---7---6---6--- 
D---7---7---7---7---7---7---7---7---7---7---7---7---7---7---7---7- 
A----------------------------------------------------------------- 
E----------------------------------------------------------------- 


Guitar 1 (cont...) 
e------------------------------------------------------------------ 
B------------------------------------------------------------------ 
G-------------------------------7-x16------------------------7-x32- 
D-4-x16-----2-x16-----7-x16-----7--------4-x16-----2-x16-----7----- 
A-4---------2---------7---------5--------4---------2---------5----- 
E-2---------0---------5------------------2---------0--------------- 
PM................................................... 


Guitar 2 (cont...) 
e--------------------------------- 
B-----------------9---9---9---9--- 
G-6---6---7---9-----9---9---9---9- 
D---7---7---7---7----------------- 
A--------------------------------- 
E--------------------------------- 
20:15 
[ Tab from: http://www.guitartabs.cc/tabs/a/ataris/in_this_diary_tab.html ]
e-9----9----9----9----9----9----9----9---- 
B---10---10---10---10---10---10---10---10- 
G----------------------------------------- 
D----------------------------------------- 
A----------------------------------------- 
E----------------------------------------- 


Pre-Chorus 2 
Guitar 1 (distortion) 
e----------------- 
B----------------- 
G-4-x16-----7-x16- 
D-4---------7----- 
A-2---------5----- 
E----------------- 


Guitar 2 (distortion) 
e-------------------------- 
B-------------------------- 
G-4-x7-----7-x17-----11-x8- 
D-x--------x---------x----- 
A-2--------5---------9----- 
E-------------------------- 


Chorus 2 
Guitar 1 (distortion) 
e------------------------------------------------------------------- 
B------------------------------------------------------------------- 
G-------------------------------7-x8--------------------------7-x16- 
D-4-x8------2-x8------7-x8------7---------4-x8------2-x8------7----- 
A-4---------2---------7---------5---------4---------2---------5----- 
E-2---------0---------5-------------------2---------0--------------- 


Guitar 2 (distortion) 
e------------------------------------------------------------- 
B------------------------------------------------------------- 
G-------------------------------7-x8-------------------------- 
D-4-x8------2-x8------7-x8------7---------4-x8------2-x8------ 
A-4---------2---------7---------5---------4---------2--------- 
E-2---------0---------5-------------------2---------0--------- 


e-9----9----10----9---- 
B---10---10----10---10- 
G---------------------- 
D---------------------- 
A---------------------- 
E----------------------


Guitar 1 (cont...) 
e------------------------------------------------------------ 
B------------------------------------------------------------ 
G-------------------------------7-x8------------------------- 
D-4-x8------2-x8------7-x8------7---------4-x8-------2-x8---- 
A-4---------2---------7---------5---------4----------2------- 
E-2---------0---------5-------------------2----------0------- 


Guitar 2 (cont...) 
e------------------------------------------------------- 
B------------------------------------------------------- 
G-------------------------------7-6-4-7-11-x7------9-x9- 
D-4-x8------2-x8------7-x8------x-x-x-x-x----------x---- 
A-4---------2---------7---------5-4-2-5-9----------7---- 
E-2---------0---------5-------------------------------- 


Guitar 1 (cont...) 
e--------------------- 
B--------------------- 
G-4-x7-6-x9-4-x9-6-x7- 
D-7----7----7----7---- 
A-7----7----7----7---- 
E--------------------- 
PM................ 


Bridge 
Guitar 1 (clean) 
e------------------------------------------------------------------ 
B------------------------------------------------------------------ 
G-7-x32-6-x16-9-x7-6-x9-7-x32 (gradually pm cuts out and dist. in)- 
D-7-----7-----9----7----7------------------------------------------ 
A-5-----7-----7----7----5------------------------------------------ 
E------------------------------------------------------------------ 
PM....................... 


Guitar 2 gives feedback at the end 

Chorus 3 
Guitar 1 (distortion) 
e------------------------------------------------------------------- 
B------------------------------------------------------------------- 
G-------------------------------7-x8--------------------------7-x16- 
D-4-x8------2-x8------7-x8------7---------4-x8------2-x8------7----- 
A-4---------2---------7---------5---------4---------2---------5----- 
E-2---------0---------5-------------------2---------0--------------- 


Guitar 2 (distortion) 
e------------------------------------------------------------- 
B------------------------------------------------------------- 
G-------------------------------7-x8-------------------------- 
D-4-x8------2-x8------7-x8------7---------4-x8------2-x8------ 
A-4---------2---------7---------5---------4---------2--------- 
E-2---------0---------5-------------------2---------0--------- 


e-9----9----10----9---- 
B---10---10----10---10- 
G---------------------- 
D---------------------- 
A---------------------- 
E---------------------- 


Guitar 1 (cont...) 
e------------------------------------------------------------- 
B------------------------------------------------------------- 
G--------------------------------7-x8------------------------- 
D-x4---4-----2-x8------7-x8------7---------4-x8-------2-x8---- 
A-x4---4-----2---------7---------5---------4----------2------- 
E-x2---2-----0---------5-------------------2----------0------- 


Guitar 1 (cont...) 
e------- 
B------- 
G-7-x16- 
D-7----- 
A-5----- 
E------- 
Right 

Guitar 2 (cont...) 
e------------------------------------------------------------------- 
B------------------------------------------------------------------- 
G--------------------------------7-6-4-7-11-x7-9-x9-7-x8------------ 
D-x4---4-----2-x8------7-x8------x-x-x-x-x-----x----x--------------- 
A-x4---4-----2---------7---------5-4-2-5-9-----7----5--------------- 
E-x2---2-----0---------5---------------------------------(pickslide) 



Chorus 4 

Guitar 1 (distortion) 
e------------------------------------------------------------------- 
B------------------------------------------------------------------- 
G-------------------------------7-x8--------------------------7-x16- 
D-4-x8------2-x8------7-x8------7---------4-x8------2-x8------7----- 
A-4---------2---------7---------5---------4---------2---------5----- 
E-2---------0---------5-------------------2---------0--------------- 


Guitar 2 (distortion) 
e----------------------------------------------------------- 
B----------------------------------------------------------- 
G-14-x7-13-x9-14-x4-13-x3-9-x9-14-x7-16-x9-14-x8------------ 
D-x-----x-----x-----x-----x----x-----x-----x---------------- 
A-12----11----12----11----7----12----14----12--------------- 
E------------------------------------------------(pickslide) 
(no space for lyric guides) 

Guitar 1 (cont...) 
e------------------------------------------------------------ 
B------------------------------------------------------------ 
G-------------------------------7-x8------------------------- 
D-4-x8------2-x8------7-x8------7---------4-x8-------2-x8---- 
A-4---------2---------7---------5---------4----------2------- 
E-2---------0---------5-------------------2----------0------- 


Guitar 1 (cont...) 
e------- 
B------- 
G-7~---- 
D-7~---- 
A-5~---- 
E------- 
Right 

Guitar 2 (cont...) 
e--------------------------------------------- 
B--------------------------------------------- 
G-14-x7-13-x9-14-x4-13-x3-9-x9-14-x7-16-x9-7~- 
D-x-----x-----x-----x-----x----x-----x-----7~- 
A-12----11----12----11----7----12----14----5~- 
E--------------------------------------------- 
Right
Comments