Ataris - If You Really Want To Hear About It Chords & Tabs

 

If You Really Want To Hear About It Chords & Tabs

Ataris Chords & Tabs

Version: 2 Type: Bass Tab 0 ratings
1 star 2 stars 3 stars 4 stars 5 stars
comments

If You Really Want To Hear About It Bass Tab

   
 --------------------
|"If You Really Want |
|To Hear About It..."|
|The Ataris          |
|End is Forever      |
|Tabbed by Ben       |
 --------------------

> = Let Ring

Intro
G------------------------------------------------------------------|
D------------------------------------------------------------------|
A---3-3-3-3------------------------------3-3-3-3-------------------|
E------------5-5-5-5--1-1-1-1--3-3-3-3------------5-5-5-5--1-1-1-1-|
                               _
                              |A|
G-----------------------------------------------------------------|
D-----------------------------------------------------------------|
A-------------Guitar---Riff----3-3-3-3----------------------------|
E---3-3-3-3----1st-----Only-------------5-5-5-5--1-1-1-1--3-3-3-3-|
                                        _
                                       |B|
G-----------------------------------------------------------------|
D-----------------------------------------------------------------|
A---3-3-3-3-------------------------------------------------------|
E------------5-5-5-5--1-1-1-1--3-3-3-3--1-1-1-1--3-3-3-3--5-5-5-5-|

[ Tab from: http://www.guitartabs.cc/tabs/a/ataris/if_you_really_want_to_hear_about_it_btab_ver_2.html ]
G-----------------------------------------------------------------|
D-----------------------------------------------------------------|
A---3-3-3-3-----------------------------3-3-3-3-------------------|
E------------1-1-1-1--3-3-3-3--5-5-5-5-----------1-1-1-1--3-3-3-3-|
                                                   _
                                                  |C|
G------------------------------------------------------------------|
D------------------------------------------------------------------|
A------------3-3-3-3---------------Back to Intro---3-3-3-3-3-3-2-2-|
E---5-5-5-5-----------1-1-1-1--3>----------------------------------|


G-----------------------------------------------------------------|
D-----------------------------------------------------------------|
A---------------------5-5-5-5--5-5-5-5-------------------3-3-3-3--|
E---5-5-5-5--5-5-5-5-------------------1-1-1-1--3-3-3-3-----------|


G-----------------------------------------------------------------|
D-----------------------------------------------------------------|
A---3-3-2-2--------------------5-5-5-5--5-5-5-5-------------------|
E------------5-5-5-5--5-5-5-5--------------------1-1-1-1--3-3-3-3-|
    _
   |D|
G-----------------------------------------------------------------|
D-----------------------------------------------------------------|
A------------------------------5-5-5-5----------------------------|
E---1-1-1-1--3-3-3-3--5-5-5-5-----------1-1-1-1--3-3-3-3--5-5-5-5-|


G-----------------------------------------------------------------|
D-------------2---------------------------------------------------|
A---3-2-3-3-5-------------------------------3-3-3-3---------------|
E----------------1-1-1-1--3-3-3-3--5-5-5-5-----------1-1-1-1--3>--|
    ______
   |Ending|
G-----------------------------------------------------------------|
D-----------------------------------------------------------------|
A---3-3-3-3-----------------------------3-3-3-3-------------------|
E------------5-5-5-5--1-1-1-1--3-3-3-3-----------5-5-5-5--1-1-1-1-|

G-----------------------------------------------------------------|
D-----------------------------------------------------------------|
A------------3-3-3-3----------------------------------------------|
E---3-3-3-3-------------------------------------------------------|
Comments