Ataris - I Wont Spend Another Night Alone Chords & Tabs

 

I Wont Spend Another Night Alone Chords & Tabs

Ataris Chords & Tabs

Version: 1 Type: Tab 0 ratings
1 star 2 stars 3 stars 4 stars 5 stars
comments

I Wont Spend Another Night Alone Tab

TABBED BY DENNIS 



INTRO	GUITAR 1
e|---------------------------------------------------------------------------|
B|---------------------------------------------------------------------------|
G|--------5------7------3----------------------------------------------------|
D|-3------5-x12--7-x12--3-x12------------------------------------------------|
A|-3-x12--3------5------1----------------------------------------------------|
E|-1-------------------------------------------------------------------------

e|-7-6---9-7-6-7
B|-----7------------|
G|------------------|
		
Intro:  Guitar 2  (2x)
e|---------------------------------------------------------------------------|
B|---------------------------------------------------------------------------|
G|---------------------------------------------------------------------------|
D|3-3-3-3-3-3-------------------------------------3-3-3-3-3-3-2-2-2-0-0-0----|
A|3-3-3-3-3-3-1-1-1-0-0-0-3-3-3-3-3-3-1-1-1-0-0-0-0-0-0-0-0-0-0-0-0-3-3-3----|
E|1-1-1-1-1-1-1-1-1-1-1-1-3-3-3-3-3-3-3-3-3-3-3-3----------------------------|
[ Tab from: http://www.guitartabs.cc/tabs/a/ataris/i_wont_spend_another_night_alone_tab.html ]
Intro Cont'd:  Guitar 2
e|---------------------------------------------------------------------------|
B|---------------------------------------------------------------------------|
G|---5-2---3-2---5-3-2-------------------------------------------------------|
D|-3-----3-----3-------------------------------------------------------------|
A|---------------------------------------------------------------------------|
E|---------------------------------------------------------------------------|

Intro Cont'd:  Guitar 2
e|---------------------------------------------------------------------------|
B|---------------------------------------------------------------------------|
G|---5-2---3-2---5-3-2-------------------------------------------------------|
D|-3-----3-----3-------------------------------------------------------------|

CHOURS
e|---------------------------------------------------------------------------|
B|---------------------------------------------------------------------------|
G|---------------------------------------------------------------------------|
D|3-3-3-3-3-3-------------------------------------3-3-3-3-3-3-2-2-2-0-0-0----|
A|3-3-3-3-3-3-1-1-1-0-0-0-3-3-3-3-3-3-1-1-1-0-0-0-0-0-0-0-0-0-0-0-0-3-3-3----|
E|1-1-1-1-1-1-1-1-1-1-1-1-3-3-3-3-3-3-3-3-3-3-3-3----------------------------|



SOLO
E-----------------------------6-5---8-6-5--6-5---8-6-5----------------------|
B|-6-5-6-5-6-5-6-8-6-5-6-5-6-5-----6------------6-------6-5-6-8-6-5-6-5-6-8--|
G|---------------------------------------------------------------------------|
D|---------------------------------------------------------------------------|
A|---------------------------------------------------------------------------|
E|---------------------------------------------------------------------------|

END ON INTRO GUITAR 1
Comments