Ataris - I Wont Spend Another Night Alone Chords & Tabs

 

I Wont Spend Another Night Alone Chords & Tabs

Ataris Chords & Tabs

Version: 2 Type: Bass Tab 0 ratings
1 star 2 stars 3 stars 4 stars 5 stars
comments

I Wont Spend Another Night Alone Bass Tab

Song:I Won't Spend Another Night Alone
Band:The Ataris
Tuning:Standard(EADG)
Tabbed By:Kyle(switchfootfreek)

Intro
G-----------------------------------------------------------------------
D-----------------------------------------------------0-----------------
A-------------3333333333-4-5555555555-3-111111111111---3-1--------------
E-111111111111----------------------------------------------------------

Verse
G-----------------------------------------------------------------------
D-------------------------------------------------0---------------------
A-------------3333333333-5555555555-111111111111---3-1------------------
E-111111111111----------------------------------------------------------
[ Tab from: http://www.guitartabs.cc/tabs/a/ataris/i_wont_spend_another_night_alone_btab_ver_2.html ]
Chrous
G-----------------------------------------------------------------------
D-----------------------------------------------------0-----------------
A-------------3333333333-4-5555555555-3-111111111111---3-1--------------
E-111111111111----------------------------------------------------------

Bridge(Part 1)-("If i had one wish this is what it would be...")
G-----------------------------------------------------------------------
D-----------------------------------------------------------------------
A-5555--5-3-1111--1-0----3----------------------------------------------
E----------------------------1>-----------------------------------------

Bridge(Part 2)-("The things you make me wanna do...")
G-----------------------------------------------------------------------
D-----------------------------------------------------------------------
A---------3-1-0----3-1-0---3-1-0-1-0----------3-1-0-1-0----333333-5-3---
E-333-5-1-------1--------3------------333-5-1-----------1---------------

End
E--2--

Order:
Intro(x2)
Verse(x2)
Chorus(x2)
Verse(x2)
Chorus(x2)
Bridge1(x1)
Bridge2(x1)
Chrous(x8)
End(x1)
Comments