Ataris - Hey Kid Chords & Tabs

 

Hey Kid Chords & Tabs

Ataris Chords & Tabs

Version: 1 Type: Tab 0 ratings
1 star 2 stars 3 stars 4 stars 5 stars
comments

Hey Kid Tab

e-----------------------------------------------
B-----------------------------------------------
G-----------------------------------------------
D-----------7-7-7-7--9-9-9-9--5-5--4-4----------
A--5-5-5-5--5-5-5-5--7-7-7-7--3-3--2-2----------
E--3-3-3-3--------------------------------------
[ Tab from: http://www.guitartabs.cc/tabs/a/ataris/hey_kid_tab.html ]
e-----------------------------------------------
B-----------------------------------------------
G-----------------------------------------------
D-----------7-7-7-7--9-9-9-9--5-5--4-4----------
A--5-5-5-5--5-5-5-5--7-7-7-7--3-3--2-2----------
E--3-3-3-3--------------------------------------
[ Tab from: http://www.guitartabs.cc/tabs/a/ataris/hey_kid_tab.html ]
*Use distortion and repeat as necessary.
Comments