Ataris - Broken Promise Ring Chords & Tabs

 

Broken Promise Ring Chords & Tabs

Ataris Chords & Tabs

Version: 1 Type: Tab 0 ratings
1 star 2 stars 3 stars 4 stars 5 stars
comments

Broken Promise Ring Tab

   
Intro:  Guitar 2
e|---------------------------------------------------------------------------|
B|---------------------------------------------------------------------------|
G|---------9--7--6-6----9--7--6-6----9--7--6-6----4--6--6--7--9-9-9-9-9------|
D|--7~~~---x--x--x-x-7--x--x--x-x-7--x--x--x-x-7--x--x--x--x--x-x-x-x-x------|
A|--7~~~---7--5--4-4-7--7--5--4-4-7--7--5--4-4-7--2--4--4--5--7-7-7-7-7------|
E|--5~~~-------------5------------5------------5-----------------------------|

Intro Cont'd:  Guitar 2
e|---------------------------------------------------------------------------|
B|---------------------------------------------------------------------------|
G|-9--7--6-6----9--7--11-11-9--9--7--6-6-9--7--6--6--------------------------|
D|-x--x--x-x-7--x--x---x--x-x--x--x--x-x-x--x--x--x--7-----------------------|
A|-7--5--4-4-7--7--5---9--9-7--7--5--4-4-7--5--4--4--7-----------------------|
E|-----------5---------------------------------------5----pickslide----------|

2nd Intro:  Guitar 1  (Whole 2nd intro played 2x)
e|---------------------------------------------------------------------------|
B|---------------------------------------------------------------------------|
G|-------------------------------9-9--9-9-9--9-9-9--9-9-9--------------------|
D|-7-7--7-7-7--7-7-7--7-7-7---7--9-9--9-9-9--9-9-9--9-9-9--------------------|
A|-7-7--7-7-7--7-7-7--7-7-7---7--7-7--7-7-7--7-7-7--7-7-7--------------------|
E|-5-5--5-5-5--5-5-5--5-5-5---5----------------------------------------------|

2nd Intro Cont'd:  Guitar 1
e|---------------------------------------------------------------------------|
B|---------------------------------------------------------------------------|
G|-9-11-11--11-11-11--11-11-11--11-11-11---11-7-7--7-7-7--7-7-7--7-7-7-------|
D|-9-11-11--11-11-11--11-11-11--11-11-11---11-7-7--7-7-7--7-7-7--7-7-7-------|
A|-7--9--9---9--9--9---9--9--9---9--9--9----9-5-5--5-5-5--5-5-5--5-5-5-------|
E|---------------------------------------------------------------------------|

2nd Intro:  Guitar 2
e|---------------------------------------------------------------------------|
B|---------------------------------------------------------------------------|
G|-9--7--6-6----9--7--6-6------7--6-6---9-7-6-----9-9-9----------------------|
D|-x--x--x-x-7--x--x--x-x-7----x--x-x-7-x-x-x--7--x-x-x----------------------|
A|-7--5--4-4-7--7--5--4-4-7----5--4-4-7-7-5-4--7--7-7-7----------------------|
E|-----------5------------5-----------5--------5-----------------------------|

2nd Intro Cont'd:  Guitar 2
e|---------------------------------------------------------------------------|
B|---------------------------------------------------------------------------|
G|-9--7--6-6----9--7--6-6-9--9--7--6--11--9--7--6----------------------------|
D|-x--x--x-x-7--x--x--x-x-x--x--x--x---x--x--x--x--7-------------------------|
A|-7--5--4-4-7--7--5--4-4-7--7--5--4---9--7--5--4--7-------------------------|
E|-----------5-------------------------------------5----pickslide------------|

Verse:(I really wanna call you.....)  Both Guitars
e|---------------------------------------------------------------------------|
B|---------------------------------------------------------------------------|
G|-------------------------------9-9--9-9-9--9-9-9--9-9-9--------------------|
D|-7-7--7-7-7--7-7-7--7-7-7---7--9-9--9-9-9--9-9-9--9-9-9--------------------|
A|-7-7--7-7-7--7-7-7--7-7-7---7--7-7--7-7-7--7-7-7--7-7-7--------------------|
E|-5-5--5-5-5--5-5-5--5-5-5---5----------------------------------------------|

Verse Cont'd:  Both Guitars
e|---------------------------------------------------------------------------|
B|---------------------------------------------------------------------------|
G|-9-11-11--11-11-11--11-11-11--11-11-11---11-7-7--7-7-7--7-7-7/7-7-7--------|
D|-9-11-11--11-11-11--11-11-11--11-11-11---11-7-7--7-7-7--7-7-7/7-7-7--------|
A|-7--9--9---9--9--9---9--9--9---9--9--9----9-5-5--5-5-5--5-5-5/4-5-5--------|
E|---------------------------------------------------------------------------|

Verse Cont'd:  Both Guitars
e|---------------------------------------------------------------------------|
B|---------------------------------------------------------------------------|
G|-------------------------------9-9--9-9-9--9-9-9--9-9-9--------------------|
D|-7-7--7-7-7--7-7-7--7-7-7---7--9-9--9-9-9--9-9-9--9-9-9--------------------|
A|-7-7--7-7-7--7-7-7--7-7-7---7--7-7--7-7-7--7-7-7--7-7-7--------------------|
E|-5-5--5-5-5--5-5-5--5-5-5---5----------------------------------------------|

Verse Cont'd:  Guitar 1
e|---------------------------------------------------------------------------|
B|---------------------------------------------------------------------------|
G|-9-11-11--11-11-11--11-11-11--11-11-11--7-7-7-7-7-7-7-7-7-7-7--------------|
D|-9-11-11--11-11-11--11-11-11--11-11-11--7-7-7-7-7-7-7-7-7-7-7--------------|
A|-7--9--9---9--9--9---9--9--9---9--9--9--5-5-5-5-5-5-5-5-5-5-5--------------|
E|---------------------------------------------------------------------------|

Verse Cont'd:  Guitar 2
e|---------------------------------------------------------------------------|
B|---------------------------------------------------------------------------|
G|-9-11-11--11-11-11--14---13-------------7-7-7-7-7-7-7-7-7-7-7--------------|
D|-9--x--x---x--x--x---x----x-------------x-x-x-x-x-x-x-x-x-x-x--------------|
A|-7--9--9---9--9--9--12---11-------------5-5-5-5-5-5-5-5-5-5-5--------------|
E|---------------------------------------------------------------------------|

Chorus:  (I guess I'm not prepared to say....)  Both Guitars
e|---------------------------------------------------------------------------|
B|---------------------------------------------------------------------------|
G|-4-4-4-4-4-4-4-6-7-7-7/7-7-7-7------------------------------7--------------|
D|-4-4-4-4-4-4-4-6-7-7-7/7-7-7-7-7-7-7-7-5-5-5-5--4x-4x-4x-4x-7--------------|
A|-2-2-2-2-2-2-2-4-5-5-5/4-5-5-5-7-7-7-7-5-5-5-5--4x-4x-4x-4x-5--------------|
E|-------------------------------5-5-5-5-3-3-3-3--2x-2x-2x-2x----Pickslide---|



Chorus cont'd:  (Until next time...)  Both Guitars
e|---------------------------------------------------------------------------|
B|---------------------------------------------------------------------------|
G|-4-4-4-4-4-4-4-6x--7-7-7-9-9-9---------------------------------------------|
D|-4-4-4-4-4-4-4-6x--7-7-7-9-9-9---------------------------------------------|
A|-2-2-2-2-2-2-2-4x--5-5-5-7-7-7---------------------------------------------|
E|---------------------------------------------------------------------------|



Verse:(You told me that you loved me...)  Both Guitars
e|---------------------------------------------------------------------------|
B|---------------------------------------------------------------------------|
G|-------------------------------9-9--9-9-9--9-9-9--9-9-9--------------------|
D|-7-7--7-7-7--7-7-7--7-7-7---7--9-9--9-9-9--9-9-9--9-9-9--------------------|
A|-7-7--7-7-7--7-7-7--7-7-7---7--7-7--7-7-7--7-7-7--7-7-7--------------------|
E|-5-5--5-5-5--5-5-5--5-5-5---5----------------------------------------------|

Verse Cont'd:  Both Guitars
e|---------------------------------------------------------------------------|
B|---------------------------------------------------------------------------|
G|-9-11-11--11-11-11--11-11-11--11-11-11---11-7-7--7-7-7--7-7-7/7-7-7--------|
D|-9-11-11--11-11-11--11-11-11--11-11-11---11-7-7--7-7-7--7-7-7/7-7-7--------|
A|-7--9--9---9--9--9---9--9--9---9--9--9----9-5-5--5-5-5--5-5-5/4-5-5--------|
E|---------------------------------------------------------------------------|

Verse Cont'd:  Both Guitars
e|---------------------------------------------------------------------------|
B|---------------------------------------------------------------------------|
G|-------------------------------9-9--9-9-9--9-9-9--9-9-9--------------------|
D|-7-7--7-7-7--7-7-7--7-7-7---7--9-9--9-9-9--9-9-9--9-9-9--------------------|
A|-7-7--7-7-7--7-7-7--7-7-7---7--7-7--7-7-7--7-7-7--7-7-7--------------------|
E|-5-5--5-5-5--5-5-5--5-5-5---5----------------------------------------------|

Verse Cont'd:  Guitar 1
e|---------------------------------------------------------------------------|
B|---------------------------------------------------------------------------|
G|-9-11-11--11-11-11--11-11-11--11-11-11--7-7-7-7-7-7-7-7-7-7-7--------------|
D|-9-11-11--11-11-11--11-11-11--11-11-11--7-7-7-7-7-7-7-7-7-7-7--------------|
A|-7--9--9---9--9--9---9--9--9---9--9--9--5-5-5-5-5-5-5-5-5-5-5--------------|
E|---------------------------------------------------------------------------|
[ Tab from: http://www.guitartabs.cc/tabs/a/ataris/broken_promise_ring_tab.html ]
Verse Cont'd:  Guitar 2
e|---------------------------------------------------------------------------|
B|---------------------------------------------------------------------------|
G|-9-14-14-14-14-14-14-13-13-13-13-13-13--7-7-7-7-7-7-7-7-7-7-7--------------|
D|-9--x--x--x--x--x--x--x--x--x--x--x--x--x-x-x-x-x-x-x-x-x-x-x--------------|
A|-7-12-12-12-12-12-12-11-11-11-11-11-11--5-5-5-5-5-5-5-5-5-5-5--------------|
E|---------------------------------------------------------------------------|

Last Bit:  Guitar 1  (4x)  Played at very low volume
e|---------------------------------------------------------------------------|
B|---------------------------------------------------------------------------|
G|-------------------------------------------------7-7-7-7-7-7-7-7-----------|
D|-7-7-7-7-7-7-7-7-6-6-6-6-6-6-6-6-4-4-4-4-4-4-4-4-7-7-7-7-7-7-7-7-----------|
A|-7-7-7-7-7-7-7-7-6-6-6-6-6-6-6-6-4-4-4-4-4-4-4-4-5-5-5-5-5-5-5-5-----------|
E|-5-5-5-5-5-5-5-5-4-4-4-4-4-4-4-4-2-2-2-2-2-2-2-2---------------------------|
  I guess.........wrong...........love............one........................
  of..............you.............onto............onto someone else.

Last Bit:  Guitar 2  (I guess that it's you...)
e|---------------------------------------------------------------------------|
B|---------------------------------------------------------------------------|
G|-9-7-6---9-7-6---9-7-6-9-7-6----14-14-14-14-14-14-14-14-14-13-9------------|
D|-x-x-x-7-x-x-x-7-x-x-x-x-x-x-7---x--x--x--x--x--x--x--x--x--x-x------------|
A|-7-5-4-7-7-5-4-7-7-5-4-7-5-4-7--12-12-12-12-12-12-12-12-12-11-7------------|
E|-------5-------5-------------5---------------------------------------------|

Last Bit Cont'd:  Guitar 2
e|---------------------------------------------------------------------------|
B|---------------------------------------------------------------------------|
G|-14-14-14-14-14-14-14-14-14-13-9---14-14-14-14-14--14-14-16-16-16-16-16-16-|
D|--x--x--x--x--x--x--x--x--x--x-x----x--x--x--x--x---x--x--x--x--x--x--x--x-|
A|-12-12-12-12-12-12-12-12-12-11-7---12-12-12-12-12--12-12-14-14-14-14-14-14-|
E|---------------------------------------------------------------------------|


Last Bit Cont'd:  Guitar 2
e|---------------------------------------------------------D-----------------|
B|---------------------------------------------------------R-----------------|
G|-14-14-14-14-14-14-14--14-13-9--14-13-9----7-6---9-7-6---U-9-7-6---9-7-6---|
D|--x--x--x--x--x--x--x---x--x-x---x--x-x-7--x-x-7-x-x-x-7-M-x-x-x-7-x-x-x-7-|
A|-12-12-12-12-12-12-12--12-11-7--12-11-7-7--5-4-7-7-5-4-7-S-7-5-4-7-7-5-4-7-|
E|----------------------------------------5------5-------5---------5-------5-|

Last Bit Cont'd:  Guitar 1  (Start with pickslide)  start at YEAH!!!
e|---------------------------------------------------------------------------|
B|---------------------------------------------------------------------------|
G|-------------------------------------------------7-7-7-7-7-7-7-7-----------|
D|-7-7-7-7-7-7-7-7-6-6-6-6-6-6-6-6-4-4-4-4-4-4-4-4-7-7-7-7-7-7-7-7-----------|
A|-7-7-7-7-7-7-7-7-6-6-6-6-6-6-6-6-4-4-4-4-4-4-4-4-5-5-5-5-5-5-5-5-----------|
E|-5-5-5-5-5-5-5-5-4-4-4-4-4-4-4-4-2-2-2-2-2-2-2-2---------------------------|

Last Bit Cont'd:  Guitar 2
e|---------------------------------------------------------------------------|
B|---------------------------------------------------------------------------|
G|-7-6---7-6-4---9-9-9-9-9--9-7-6----9-7-11-9-9-9-9-7-6---7-6---7-7-7-7-7----|
D|-x-x-7-x-x-x-7-x-x-x-x-x--x-x-x-7--x-x--x-x-x-x-x-x-x-7-x-x-7-x-x-x-x-x----|
A|-5-4-7-5-4-2-7-7-7-7-7-7--7-5-4-7--7-5--9-7-7-7-7-5-4-7-5-4-7-5-5-5-5-5----|
E|-----5-------5------------------5---------------------5-----5--------------|

Last Bit Cont'd:  Guitar 1
e|---------------------------------------------------------------------------|
B|---------------------------------------------------------------------------|
G|-------------------------------------------------7-7-7-7-7-7-7-7-----------|
D|-7-7-7-7-7-7-7-7-6-6-6-6-6-6-6-6-4-4-4-4-4-4-4-4-7-7-7-7-7-7-7-7-----------|
A|-7-7-7-7-7-7-7-7-6-6-6-6-6-6-6-6-4-4-4-4-4-4-4-4-5-5-5-5-5-5-5-5-----------|
E|-5-5-5-5-5-5-5-5-4-4-4-4-4-4-4-4-2-2-2-2-2-2-2-2---------------------------|

Last Bit Cont'd:  Guitar 2
e|---------------------------------------------------------------------------|
B|---------------------------------------------------------------------------|
G|-14-14-14-14-14-14-14-14-14-13-9-14-14-14-14-14-14-14-14-14-13-9-----------|
D|--x--x--x--x--x--x--x--x--x--x-x--x--x--x--x--x--x--x--x--x--x-x-----------|
A|-12-12-12-12-12-12-12-12-12-11-7-12-12-12-12-12-12-12-12-12-11-7-----------|
E|---------------------------------------------------------------------------|

Last Bit Cont'd:  Guitar 1
e|---------------------------------------------------------------------------|
B|---------------------------------------------------------------------------|
G|-------------------------------------------------7-7-7--7-7-7--------------|
D|-7-7-7-7-7-7-7-7-6-6-6-6-6-6-6-6-4-4-4-4-4-4-4-4-7-7-7--7-7-7--------------|
A|-7-7-7-7-7-7-7-7-6-6-6-6-6-6-6-6-4-4-4-4-4-4-4-4-5-5-5--5-5-5--------------|
E|-5-5-5-5-5-5-5-5-4-4-4-4-4-4-4-4-2-2-2-2-2-2-2-2---------------------------|

Last Bit Cont'd:  Guitar 2
e|---------------------------------------------------------------------------|
B|---------------------------------------------------------------------------|
G|-14-14-14-14-14--14-14-16-16-16-16-16-16-7-7-7--7-7-7--9-7-6--9-7-6--------|
D|--x--x--x--x--x---x--x--x--x--x--x--x--x-7-7-7--7-7-7--x-x-x--x-x-x-7------|
A|-12-12-12-12-12--12-12-14-14-14-14-14-14-5-5-5--5-5-5--7-5-4--7-5-4-7------|
E|--------------------------------------------------------------------5------|

Last Bit Cont'd:  Guitar 1
e|---------------------------------------------------------------------------|
B|---------------------------------------------------------------------------|
G|-------------------------------------------------7-7-7-7-7-7-7-7-----------|
D|-7-7-7-7-7-7-7-7-6-6-6-6-6-6-6-6-4-4-4-4-4-4-4-4-7-7-7-7-7-7-7-7-----------|
A|-7-7-7-7-7-7-7-7-6-6-6-6-6-6-6-6-4-4-4-4-4-4-4-4-5-5-5-5-5-5-5-5-----------|
E|-5-5-5-5-5-5-5-5-4-4-4-4-4-4-4-4-2-2-2-2-2-2-2-2---------------------------|

Last Bit Cont'd:  Guitar 2
e|---------------------------------------------------------------------------|
B|---------------------------------------------------------------------------|
G|-9-7-6-7-6-7---9-9-9-9--9-7-6---6-7--9-7-6-9-9-7-6-7-6-6---9-9-9-9---------|
D|-x-x-x-x-x-x-7-x-x-x-x--x-x-x-7-x-x--x-x-x-x-x-x-x-x-x-x-7-x-x-x-x---------|
A|-7-5-4-5-4-5-7-7-7-7-7--7-5-4-7-4-5--7-5-4-7-7-5-7-5-4-4-7-7-7-7-7---------|
E|-------------5----------------5--------------------------5-----------------|

Last Bit Cont'd:  Guitar 1
e|---------------------------------------------------------------------------|
B|---------------------------------------------------------------------------|
G|-------------------------------------------------7-7-7-7-7-7-7-9-----------|
D|-7-7-7-7-7-7-7-7-6-6-6-6-6-6-6-6-4-4-4-4-4-4-4-4-7-7-7-7-7-7-7-9-----------|
A|-7-7-7-7-7-7-7-7-6-6-6-6-6-6-6-6-4-4-4-4-4-4-4-4-5-5-5-5-5-5-5-7-----------|
E|-5-5-5-5-5-5-5-5-4-4-4-4-4-4-4-4-2-2-2-2-2-2-2-2---------------------------|

Last Bit Cont'd:  Guitar 2
e|---------------------------------------------------------------------------|
B|---------------------------------------------------------------------------|
G|-9-7-6---6-7-9-7-6-9-9-7-6-9-7-6---9-9-9-9--9-7-6---6-7-9-7-6-9-9-7-6-7-6-7|
D|-x-x-x-7-x-x-x-x-x-x-x-x-x-x-x-x-7-x-x-x-x--x-x-x-7-x-x-x-x-x-x-x-x-x-x-x-x|
A|-7-5-4-7-4-5-7-5-4-7-7-5-4-7-5-4-7-7-7-7-7--7-5-4-7-4-5-7-5-4-7-7-5-4-5-4-5|
E|-------5-------------------------5----------------5------------------------|

Last Bit Cont'd:  Guitar 1
e|---------------------------------------------------------------------------|
B|---------------------------------------------------------------------------|
G|-------------------------------------------------7-7-7-7-7-7-9-9-9-9-9-9---|
D|-7-7-7-7-7-7-7-7-6-6-6-6-6-6-6-6-4-4-4-4-4-4-4-4-7-7-7-7-7-7-9-9-9-9-9-9-7~|
A|-7-7-7-7-7-7-7-7-6-6-6-6-6-6-6-6-4-4-4-4-4-4-4-4-5-5-5-5-5-5-7-7-7-7-7-7-7~|
E|-5-5-5-5-5-5-5-5-4-4-4-4-4-4-4-4-2-2-2-2-2-2-2-2-------------------------5~|

Last Bit Cont'd:  Guitar 2
e|---------------------------------------------------------------------------|
B|---------------------------------------------------------------------------|
G|-6--9-9-9-9-9-9-9----------------------------------------------------------|
D|-x--x-x-x-x-x-x-x-7~-------------------------------------------------------|
A|-4--7-7-7-7-7-7-7-7~-------------------------------------------------------|
E|------------------5~-------------------------------------------------------|
Comments