Ataris - Beautiful Mistake Chords & Tabs

 

Beautiful Mistake Chords & Tabs

Ataris Chords & Tabs

Version: 1 Type: Tab 0 ratings
1 star 2 stars 3 stars 4 stars 5 stars
comments

Beautiful Mistake Tab

   
Artist: The Ataris
Song: A Beautiful Mistake (Off of Take Action compilation)
Tabbed By: Jana

INTRO 2x
e|-------------------------------------------------------
B|-------------------------------------------------------
G|-777777-77-7777----------------------------------------
D|-777777-77-7777----------------------------------------
A|-555555-55-5555----------------------------------------
E|-------------------------------------------------------

VERSE 3x
e|-------------------------------------------------------
B|-------------------------------------------------------
G|-77777777-77777777-------------------------------------
D|-77777777-77777777-77777777-55555555-------------------
A|-55555555-xxxxxxxx-77777777-55555555-------------------
E|----------77777777-55555555-33333333-------------------

3rd time
e|-------------------------------------------------------
B|-------------------------------------------------------
G|-77777777----------------------------------------------
D|-77777777-88888888-99999999-10-------------------------
A|-55555555-88888888-99999999-10-[8x]--------------------
E|----------66666666-77777777-8--------------------------
[ Tab from: http://www.guitartabs.cc/tabs/a/ataris/beautiful_mistake_tab.html ]
CHORUS 2x
e|-------------------------------------------------------
B|-------------------------------------------------------
G|----------7777-----------------------------------------
D|-55555555-7777-7777------------------------------------
A|-55555555-5555-7777------------------------------------
E|-33333333------5555------------------------------------

BRIDGE
e|-------------------------------------------------------
B|-------------------------------------------------------
G|-------------------------------------------------------
D|-44444444-55555555-44444444-55556666-------------------
A|-44444444-55555555-44444444-55556666-------------------
E|-22222222-33333333-22222222-33334444-------------------

INTRO 2x
VERSE 3x
CHORUS 2x
BRIDGE 

BRIDGE#2 2x
e|-------------------------------------------------------------------
B|-------------------------------------------------------------------
G|-------------------77777777----------------------------------------
D|-99999999-55555555-77777777-77777777-99999999-55555555-77777777----
A|-99999999-55555555-55555555-77777777-99999999-55555555-77777777-[2x]
E|-77777777-33333333----------55555555-77777777-33333333-55555555----

SOLO
e|---------------------------5-5-5-5-5----99p10----5----5---6------
B|-777777775----------------6-6-6-6-6-7/10-----10-3-3--2-2--x-[8x]-
G|----------7666666676666666---------------------4---42---2-3------
D|-----------------------------------------------------------------
A|-----------------------------------------------------------------
E|-----------------------------------------------------------------

CHORUS2x
BRIDGE 
INTRO
Comments