Ataris - Bad Case Of Broken Heart Chords & Tabs

 

Bad Case Of Broken Heart Chords & Tabs

Ataris Chords & Tabs

Version: 2 Type: Tab 0 ratings
1 star 2 stars 3 stars 4 stars 5 stars
comments

Bad Case Of Broken Heart Tab

-(5)----------------------------------------
-(5)----------------------------------------
--7-----------------------------------------
--7-----------------------------------------
--5-----------------------------------------
--0-----------------------------------------
    Today I'm missing something

-(2)---------------------------(3)-----------
-(2)---------------------------(3)-----------
--4----------------------------(3)-----------
--4-----------------------------5------------
--2-----------------------------5------------
--0-----------------------------3------------
    In this small New England town

-(3)---------------------------------------
-(3)---------------------------------------
-(3)---------------------------------------
--5----------------------------------------
--5----------------------------------------
--3----------------------------------------
  Here's to you my best friend

-(5)---------------------------------------
-(5)---------------------------------------
-(5)---------------------------------------
--7---------------------------------------
--7----------------------------------------
--5----------------------------------------
  Just wanted to say that I miss having you around.

Repeat same chords for second verse:
[ Tab from: http://www.guitartabs.cc/tabs/a/ataris/bad_case_of_broken_heart_tab_ver_2.html ]
I'm staring at your picture,
And dreaming I could hold your hand,
We walked down to the ocean, 
And I would write your name in the sand.

Chorus:


-(2)------------------------------------(3)---
-(2)------------------------------------(3)---
--4-------------------------------------(3)---
--4--------------------------------------5----
--2--------------------------------------5----
--0--------------------------------------3----
  They say sometimes you need some time apart


-(5)----------------------(5)--------------
-(5)----------------------(5)--------------
--7-----------------------(5)--------------
--7------------------------7---------------
--5------------------------7---------------
--0------------------------5---------------
  But I've got a bad case of broken heart


-(2)-----------------------------------(3)-
-(2)-----------------------------------(3)-
--4------------------------------------(3)-
--4-------------------------------------5--
--2-------------------------------------5--
--0-------------------------------------3--
  And you're the only one who's got the cure


-(5)-----------------------------------------------------(5)
-(5)-----------------------------------------------------(5)
-(5)------------------------------------------------------7
--7-------------------------------------------------------7 
--7-------------------------------------------------------5
--5-------------------------------------------------------0
  And I can't live another day without seeing you smile.
Comments