Ataris - Bad Case Of Broken Heart Chords & Tabs

 

Bad Case Of Broken Heart Chords & Tabs

Ataris Chords & Tabs

Version: 1 Type: Tab 0 ratings
1 star 2 stars 3 stars 4 stars 5 stars
comments

Bad Case Of Broken Heart Tab

   
-------------------------------------------------------------------------------
	          bad case of broken heart- the ataris
-------------------------------------------------------------------------------

Tabbed by:ian
Email:
[ Tab from: http://www.guitartabs.cc/tabs/a/ataris/bad_case_of_broken_heart_tab.html ]
Tuning:standard tuning
verse 1
            to day im missing somthing        in this small new england town
e|---------------------------------------------------------------------------|
B|---------------------------------------------------------------------------|
G|--7---------------------------------2-4-----------------------------2-5----|
D|--7---------------------------------2-4-----------------------------2-5----|
A|--5---------------------------------0-2-----------------------------0-3----|
E|---------------------------------------------------------------------------|
   heres to you my best friend   just wanna say that i miss having you around
e|---------------------------------------------------------------------------|
B|---------------------------------------------------------------------------|
G|---------------------------------------------------------------------------|
D|----------------------------7----------------------------------------------|
A|----------------------------7----------------------------------------------|
E|----------------------------5----------------------------------------------|
     im staring at your picture      and dreamin' that i could hold your hand
e|---------------------------------------------------------------------------|
B|---------------------------------------------------------------------------|
G|--7----------------------------2-4--------------------------------------2--|
D|--7----------------------------2-4--------------------------------------2--|
A|--5----------------------------0-2--------------------------------------0--|
E|---------------------------------------------------------------------------|
      we'd went down to the ocean     and i would write your name in the sand
e|---------------------------------------------------------------------------|
B|---------------------------------------------------------------------------|
G|---------------------------------------------------------------------------|
D|--5----------------------------7-------------------------------------------|
A|--5----------------------------7-------------------------------------------|
E|--3----------------------------5-------------------------------------------|
chorus
 you say sometimes you need sometime apart but iv got a bad case of broken heart
e|---------------------------------------------------------------------------|
B|---------------------------------------------------------------------------|
G|---4------------------------------2------------------------7---------------|
D|---4------------------------------2----5-------------------7-----7---------|
A|---2------------------------------0----5-------------------5-----7---------|
E|---------------------------------------3-------------------------5---------|
  your the only one whose got the cure 
e|---------------------------------------------------------------------------|
B|---------------------------------------------------------------------------|
G|--4--------------------------2---------------------------------------------|
D|--4--------------------------2----5----------------------------------------|
A|--2--------------------------0----5----------------------------------------|
E|----------------------------------3----------------------------------------|
   and i cant live another day without seeing you smile
e|---------------------------------------------------------------------------|
B|---------------------------------------------------------------------------|
G|---------------------------------------------------------------------------|
D|-----------7---------------------------7+-7+----7--7+----------------------|
A|-----------7---------------------------7+-7+----7--7+----------------------|
E|-----------5---------------------------5+-5+----5--5+----------------------|
solo
e|--------------------------------------------------------10-9-----------| 
B|-----10----------------------------------9-9h10p9-12~--------10-12-10--| 
G|9b------9-11-7v---12-11-9-7-6-7-9v--11v--------------------------------| 
D|-----------------------------------------------------------------------| 
A|-----------------------------------------------------------------------| 
E|-----------------------------------------------------------------------| 

e|-----------------------------------------------------------------------| 
B|-----------------------------------------------------------------------| 
G|12-11-12-11-------7-9-7---7~-------------------------------------------| 
D|--------------7h9-------9----------------------------------------------| 
A|-----------------------------------------------------------------------| 
E|-----------------------------------------------------------------------| 
Two thousand miles between us     I guess that I'm the one to blame 
e|-----------------------------------------------------------------------| 
B|-----------------------------------------------------------------------| 
G|------------------------------6h7--------------------------------------| 
D|---------------------------------------------------------------5x------| 
A|---------------------------------------------------------------5x------| 
E|---------------------------------------------------------------3x------| 
relationships and heartaches, these two things are one in the same 
e|-----------------------------------------------------------------------| 
B|-----------------------------------------------------------------------| 
G|------------------------------------------7-7/9--------------------6h7-| 
D|-----------------------------------------------------------------------| 
A|-----------------------------------------------------------------------| 
the radio plays our love song, I smashed my fist right through the dial 
E|-----------------------------------------------------------------------| 
e|-----------------------------------------------------------------------| 
B|-----------------------------------------------------------------------| 
G|-----------------------------------------------------------------------| 
D|-------------------------------------------------------------------5---| 
A|-------------------------------------------------------------------5---| 
E|-------------------------------------------------------------------3---| 
Here's to the broken hearted, a generation born in de-ni-al
e|-----------------------------------------------------------------------| 
B|-----------------------------------------------------------------------| 
G|-----------------------------------------------------------------------| 
D|------------------------------7-------------7~--------7~-7~------------| 
A|------------------------------7-------------7~--------7~-7~------------| 
E|------------------------------5-------------5~--------5~-5~------------|
 end on      
      g7
      d7
      a5
      e  
| /  slide up
| \  slide down
| h  hammer-on
| p  pull-off
| v  vibrato
| +,~  let ring
| x  Mute note

===============================================================================
Comments