Ataris - Angry Nerd Rock Chords & Tabs

 

Angry Nerd Rock Chords & Tabs

Ataris Chords & Tabs

Version: 3 Type: Tab 0 ratings
1 star 2 stars 3 stars 4 stars 5 stars
comments

Angry Nerd Rock Tab

Artist: The Ataris
Album: Blue skies...
Tuning: EADGBe
Song: Angry Nerd Rock

This version of the song is only a little different than the acoustic version.
This is the first song my band covered when we started because it's really easy
but it's so sweet. Alright, here we go...

*intro*
After the bass riff
e-------------------------------
B---17-----17----17----17-17----
G-------16----16---16----16-16--
D-------------------------------
A-------------------------------
E-------------------------------

*verse*
e---------------------------------------------------------
B---------------------------------------------------------
G--------------------------------------------------11111--
D--77777--66666--44444--66666--77777--66666--4444--22222--x4
A--00000--77777--00000--77777--00000--77777--0000--22222--
E--------------------------------------------------00000--

*chorus* (its not really a chorus, but...whatever, you understand.)
e------------------------------------------------------------------------
B------------------------------------------------------------------------
G-----------------------------------------------------22222--------------
D-*pick slide*-----777777777777777-99999999-222222222-22222-22222-22222--
A------------------777777777777777-99999999-222222222-00000-22222-00000--
E------------------555555555555555-77777777-000000000-------00000--------

e---------------------------------------------------------
B---------------------------------------------------------
G-------------------------------------22222---------------
D--777777777777777-99999999-222222222-22222-22222------2--
A--777777777777777-99999999-222222222-00000-22222------2--
E--555555555555555-77777777-000000000-------00000------0--

*verse 2*
e-------------------------------------------------------
B-------------------------------------------------------
G------------------------------------------------11111--
D--77777--66666--44444--66666--77777--66666--44--22222--
A--00000--77777--00000--77777--00000--77777--00--22222--
E------------------------------------------------00000--
[ Tab from: http://www.guitartabs.cc/tabs/a/ataris/angry_nerd_rock_tab_ver_3.html ]
e-------------------------------------------------------------
B-------------------------------------------------------------
G------------------------------------------------1----1-11-1-11--
D--77777--66666--44444--66666--77777--66666--44--2----2-22-2-22--
A--00000--77777--00000--77777--00000--77777--00--2----2-22-2-22--
E------------------------------------------------0----0-00-0-00--

*chorus*
e--------------------------------------------------------------------
B--------------------------------------------------------------------
G--1-11-1-11--------------------------------------22222-------22222--
D--2-22-2-22---777777777777777-99999999-222222222-22222-22222-22222--
A--2-22-2-22---777777777777777-99999999-222222222-00000-22222-00000--
E--0-00-0-00---555555555555555-77777777-000000000-------00000--------

e---------------------------------------------------------
B---------------------------------------------------------
G-------------------------------------22222---------------
D--777777777777777-99999999-222222222-22222-22222------2--
A--777777777777777-99999999-222222222-00000-22222------2--
E--555555555555555-77777777-000000000-------00000------0--

*outro*
e-----------------------------------------------------
B-----------------------------------------------------
G--------------------------------------------------1--
D--77777--66666--44444--66666--77777--66666--4444--2--
A--00000--77777--00000--77777--00000--77777--0000--2--
E--------------------------------------------------0--

*solo* (real simple)
e------------------------------    -----------------------------------
B---17p16---19-17-17-17-17p16--    -17p16---19-17-17-17-17p16---------
G--------16------------------16 x2 --------------------------16-18----
D------------------------------    ---------------------------------14
A------------------------------    -----------------------------------
E------------------------------    -----------------------------------

after the solo, the rest of the song is pretty easy to figure out. if you really
can't figure it out, then you're dumb and shouldnt be playing guitar. the chord
is an Em and you know the rest.
sweet song, PEACE!!!
Comments