At The Gates - Blinded By Fear Chords & Tabs

 

Blinded By Fear Chords & Tabs

At The Gates Chords & Tabs

Version: 2 Type: Tab 0 ratings
1 star 2 stars 3 stars 4 stars 5 stars
comments

Blinded By Fear Tab

At The Gates - Blinded by Fear.
 Tabbed by Danny D.  tossa_rush@hotmail.com.
  
tune every string down 2 and a half steps down.

* - palm mute
~ - vibrato
h - hammer on
p - pull off
b - bend

intro
[|-------------|]
[|-------------|]
[|-------------|]
[|-5-4---------|]
[|-3-2---5-4---|]
[|-------3-2---|]

1st riff (x4)
[|--------------------------------------|]
[|--------------------------------------|]
[|--------------------------------------|]
[|--------------------------------------|]
[|-10-----10-9-----9-12-----9-10--------|]
[|---0000-----0000-----8888------777777-|]
     ****     ****     ****      ******

2nd riff (x2)
[|---------------------------------------|]
[|---------------------------------------|]
[|-----------------3---------------------|]
[|-2-2-2-2---------1---2-2-2-2---------3-|]
[|-2-2-2-2-------------2-2-2-2---------1-|]
[|-0-0-0-0-0h2h3-0-----0-0-0-0-0h2h3-0---|]
   * * * *             * * * *

then play 1st riff (x2)
then play 2nd riff (x2)

3rd riff (x2)
[|----------------------------------------------|]
[|----------------------------------------------|]
[|----------------------------------------------|]
[|---------------9---8---------------9----------|]
[|----------7h10---7------------7h10---6-9------|]
[|-00000000------------00000000-----------------|]

then play 1st riff (x4)
then play 2nd riff (x2)
then play 3rd riff (x2)

Fill
[|-------------------|]
[|-------------------|]
[|-------------------|]
[|----------5-4------|]
[|----------3-2--5-4-|]
[|-00000000------3-2-|]
   ........
[ Tab from: http://www.guitartabs.cc/tabs/a/at_the_gates/blinded_by_fear_tab_ver_2.html ]
slow heavy riff before solo (x2) 
one does the clean part and the other does the heavy backing.
|---------------------------------------------------|
|---------------------------------------------------|
|-----------7---6---------------------5---4---------|
|-5----7-8--7---6-----------3----5-6--5---4---------|
|-5----7-8--5---4-----------3----5-6--3---2---------|
|-3----5-6------------------1----3-4----------------|
|                                                   |
|---------------------------------------------------|
|-----3----3--------2---2-------1----1--------0---0-|
|---3----3----3---2---2---2---1----1----1---0---0---|
|-5----5----5---5---5---5---3----3----3---3---3-----|
|---------------------------------------------------|
|---------------------------------------------------|

solo
the solo is played over the 1st riff
[|---------------------------------------------|]
[|-12~--13p12h13--12--10--12b--12--8--7--------|]gtr1
[|---------------------------------------------|]
[|---------------------------------------------|]
[|---------------------------------------------|]
[|---------------------------------------------|]
 |                                             |
[|---------------------------------------------|]
[|--8~--10p8h10----8---7---8b---8--5--4--------|]gtr2
[|---------------------------------------------|]
[|---------------------------------------------|]
[|---------------------------------------------|]
[|---------------------------------------------|]

fast part of solo (x3)
[|--------------------------------|]
[|--12-10p0-10-8p0-8-7p0-7-5p0-5--|]gtr1
[|--------------------------------|]
[|--------------------------------|]
[|--------------------------------|]
[|--------------------------------|]
 |                                |
[|--------------------------------|]
[|---8--7p0--7-5p0-5-3p0-3-5p0-5--|]gtr2
[|--------------------------------|]
[|--------------------------------|]
[|--------------------------------|]
[|--------------------------------|]

then play 1st riff (x4)
then play 2nd riff (x2)
then play 3rd riff (x1.75)
then play fill (x1)

thanx c.v.
 
:: Ultimate Guitar Archive :: 
http://www.ultimate-guitar.com 



Comments