At The Gates - Blinded By Fear Chords & Tabs

 

Blinded By Fear Chords & Tabs

At The Gates Chords & Tabs

Version: 1 Type: Tab 0 ratings
1 star 2 stars 3 stars 4 stars 5 stars
comments

Blinded By Fear Tab

At the gates, blinded by fear.
 Tabbed by Tommy Bruhn.
  
***********************Blinded by fear- At the gates***********************

Tabbed by Tommy Bruhn.
This version is transposed to E. The original is probably in C, C#, or B.
If youre a real badass, double every 0 on the 6th string.
Get a hard, not-so-reverbed distortion and a couple of friends and play this.
 If youre not filled with Adrenaline after one time, you are a corpse.
In the words of the At the gates guitar player: "I only use amp distortion, 
Im a HeavyMetal guitarist, not a ballet dancer"!


Fill 1
     
E-|------------|
B-|------------|
G-|------------|
D-|--5\4-------|
A-|--3\2--5\4--|
E-|-------3\2--|

Main riff

E-|---------------------------------------|
B-|---------------------------------------|
G-|---------------------------------------|
D-|---------------------------------------|
A-|--10-----10-9-----10-12-----9-10-------|
E-|-----0-0------0-0-------8-8------7-7-7-|

Chorus riff 

E-|----------------------|---------------------|
B-|----------------------|---------------------|
G-|----------------------|---------------------|
D-|-------------------1--|-------------4---3---|
A-|-------------2--------|-------------2---1---|
E-|-0-0-0-0-0-3---0-3----|-0-0-0-0-0-3---0-----|
[ Tab from: http://www.guitartabs.cc/tabs/a/at_the_gates/blinded_by_fear_tab.html ]
Bridge

E-|-----------------------|----------------------|
B-|-----------------------|----------------------|
G-|-----------------------|----------------------|
D-|-------------1---------|-------------1--------|
A-|-------------------2---|-------------------1--|
E-|-0-0-0-0-0-3---0-3-----|-0-0-0-0-0-3---0-3----|

{Fill 1}
{Main riff x 4}
{Chorus riff}
{Main riff x 4}
I toss aside my shakes
Far from reality
My purgatory unleashed
And i burn the face of the 
{Chorus riff}
earth.
Purgatory unleashed
Now burn the face of the earth 
{Bridge}
The face of all youre fears
all youre fears
Unleash the face of all youre fears
{main riff x 2}
{main riff x 4}
Cast off the deamon sky
twisting reality
Sweet nausiating pain
Is Death the only ease?
{Chorus riff}
Nauseating Pain
Is death the only ease? 
{Bridge}
The face of all youre fears
all youre fears
Unleash the face of all youre fears
{Untabable solo}
{Fill 1}
{Main riff x 4}
I toss aside my shakes
Far from reality
My purgatorys unleashed
And i burn the face of the 
{Chorus riff}
earth.
Purgatory unleashed
Now burn the face of the earth 
{Bridge}
The face of all youre fears
all youre fears
Unleash the face of all youre fears
{Fill 1, hold last chord} 

:: Ultimate Guitar Archive :: 
http://www.ultimate-guitar.com
Comments