At The Gates - All Life Ends Chords & Tabs

 

All Life Ends Chords & Tabs

At The Gates Chords & Tabs

Version: 1 Type: Tab 0 ratings
1 star 2 stars 3 stars 4 stars 5 stars
comments

All Life Ends Tab

   
                        AT THE GATES - ALL LIFE ENDS
                       From the Album GARDENS OF GRIEF
                 Copyright 2001 (Re-release) BLACK SUN RECORDS

                           Version 1.1 - MAY '02

Transcribed by: death8699

For Questions, Comments, Newest Version, or Corrections contact
 death8699: at ArchEnemies@aol.com

Check Out Death8699.com, With More Transcriptions On It:
 http://www.death8699.com

.  - palm mute                  /  - slide up to
\  - slide down to              ~  - vibrato             
h  - hammer on                  b  - bend 
p  - pull off                   Suffixes for bend    
ph - pinch harmonic             f - full bend    h - half bend
*  - see comment                r - release      t - tap bend
X  - percussion mute            ~ - vibrato bend
@  - slight palm mute           () - ghost note, sustained note

Tune Gtr to B

--A L L  L I F E  E N D S--

[Intro]
[-----------------|------------------]
[-----------------|------------------]
[*----------------|-----------------*]Gtrs 
[*--------------3-|--------------3--*]I&II
[--2------------1-|-2------------1---]
[--0--------------|-0----------------]


[Riff A]
[------------------------|------------------------]
[------------------------|------------------------]
[*-----------------------|-----------------------*]Gtrs 
[*-----------------------|-----------------------*]I&II
[--2---/7~---8-----------|-2---/7~---8------------]
[--0---sl--------6_7-6-4-|-0---sl--------6_7-6-4--]
                  h                       h


[Riff A.2]
[------------------------|------------------------]
[------------------------|------------------------]
[*-----------------------|-----------------------*]Gtrs 
[*-----------------------|-----------------------*]I&II
[--2---/7~---8---8/9-8-6-|-2---/7~---8---8/9-8-6--]
[--0---sl--------6/7-6-4-|-0---sl--------6/7-6-4--]
                 sl                      sl


[Riff A.3] (w/Riff A.2)                       [2tx]
[-------------------------|-----------------------]
[-------------------------|-----------------------]
[*-----/9~----10--6_7-6---|----/9----10--6_7-6---*]Gtr
[*-----sl----------h----6-|----sl---------h----6-*]III
[--7~---------------------|-7~--------------------]
[-------------------------|-----------------------]


[Fill 1]
[---------]
[---------]
[*-------*]Gtrs
[*-------*]I&II
[--2-(2)--]
[--0-(0)--]

        
[Next]
[---------------------|---------------------]
[---------------------|---------------------]
[*-/9---6---/10---7---|-/9---6---/10---*7--*]Gtr
[*-sl-------sl--------|-sl-------sl--------*] I
[---------------------|---------------------]
[---------------------|---------------------]
 
[---------------------|---------------------]
[---------------------|---------------------]
[*--------------------|--------------------*]Gtr
[*--------------------|--------------------*] II
[--2-(2)--------------|-/7---4----/8---*5---]
[--0-(0)--------------|-sl--------sl--------]


[Riff B]              [4tx]
[-------------------------]
[-------------------------]
[*-/9-6-/10-7-/9-6-/10-7-*]Gtr
[*-sl---sl----sl---sl----*] I
[-------------------------]
[-------------------------]

                      [4tx]
[-------------------------]
[-------------------------]
[*-----------------------*]Gtr
[*-----------------------*] II
[--/7-4--/8-5-/7-4--/8-5--]
[--sl----sl---sl----sl----]


[Riff C]
[-----------------------------------------]
[-----------------------------------------]
[*---------------------------------------*]Gtr
[*---------------------------------------*] I
[--3------5-6-2-(2)-----------------------]
[--1------3-4-0-(0)------/7~---8---3-2-4--]
                         sl
[-----------------------------------------]
[-----------------------------------------]
[*---------------------------------------*]Gtr
[*-----------------------/9~--10---------*] II
[--3------5-6-2-(2)------sl--------8-7-9--]
[--1------3-4-0-(0)-----------------------]


Fill 1


[Riff D]
[-----------------------------|---------------------------------]
[-----------------------------|---------------------------------]
[*----------------------------|--------------------------------*]Gtrs
[*----------------------------|--------------------------------*]I&II
[----------------1"-----------|-----------------1"--------------]
[--0"--------------------3"---|---0"--------------------3"------]
   .             .       .        .             .       .


[Riff D.1]                                                [1.5tx]
[-----------------------------|---------------------------------]
[-----------------------------|---------------------------------]
[*----------------------------|--------------------------------*]Gtrs
[*---------------3"-----------|-----------------3"-------------*]I&II
[--2"------------1"------5"---|---2"------------1"------5"------]
[--0"--------------------3"---|---0"--------------------3"------]
   .             .       .        .             .       .


[Fill 2]
[------------------------------------]
[------------------------------------]
[*----------------------------------*]Gtrs
[*---------------3"-----------------*]I&II
[--2"------------1"------------------]
[--0"--------------------3"------3---]
   .             .       .       


Riff C [2tx]


[Riff E]
[-----------------------------------|--------------------------------]
[-----------------------------------|--------------------------------]
[*----------------------------------|-------------------------------*]Gtrs
[*----------------------------------|---------------------3---------*]I&II
[--11------12-----------6---3-2-(2)-|-----2-(2)------1"---1-3-2-(2)--]
[--9-------10------4"---4---1-0-(0)-|-4---0-(0)-------------1-0-(0)--]
                   .                                 .

[-----------------------------------|--------------------------------]
[-----------------------------------|--------------------------------]
[*----------------------------------|-------------------------------*]Gtrs
[*----------------------------------|-------------/9---10--5--4--6--*]I&II
[---2---5-6-2-(2)-------------------|--------------------------------]
[---2---3-4-0-(0)-------------------|-------------/7---8---3--2--4---]
                                                  sl

[ Tab from: http://www.guitartabs.cc/tabs/a/at_the_gates/all_life_ends_tab.html ]
[Fill 3]
[---------------------|--------------------|------------------------]
[---------------------|--------------------|------------------------]
[*--------------------|--------------------|-----------------------*]Gtrs
[*--------------------|--------------------|-----------------------*]I&II
[------4_3-6_5-/8---7-|-----4_3-6_5-/8---7-|----8-7-----8-7----8-7--]
[--4_3--p---p--sl-----|-4_3--p---p--sl-----|-0-------0------0-------]
    p                    p                   .       .      .
    

[Riff F]
[------------------------|------------------------]
[------------------------|------------------------]
[*-----------------------|-----------------------*]Gtrs
[*-7_8_7-6---------------|------6_5-------10_9---*]I&II
[---h-p----8-7-----8---7-|-6_5---p---7-6----p-----]
[--------------9-0-------|--p---------------------]
             . . .                   . .       


[Riff F.1]
[-----------------------|-----------------------|-----------------------]
[-----------------------|-----------------------|-----------------------]
[*-------9--------------|-----------------------|-------8--------------*]Gtrs
[*-8_9_8-7--------------|-------6_5--------10_9-|-7_8_7-6--------------*]I&II
[---h-p----9-8------8-7-|--6_5---p---7--6----p--|--h-p----8-7-----8-7---]
[--------------10-0-----|---p-------------------|-------------9-0-------]
             . .  .                  .  .                   . . .


[Riff G]                                           [2tx]
[--------------------------|---------------------------]
[--------------------------|---------------------------]
[*-------------------------|---------5~--6~-----------*]Gtrs
[*-------------------------|-----6~-------------3-----*]I&II
[--7----5-9---10\9-7-------|-5-------------------------]
[--5----3-7----8\7-5----0"-|-3---------------5----5-4--]
                sl      .


[Fill 4]
[-------------------------------------]
[------------------------4_3-6~-(6)---]
[*-------------------4_3--p----------*]Gtrs
[*-------3_2-----4_3--p--------------*]I&II
[----4----p--4_3--p-------------------]
[--5---5------p-----------------------]


[Riff H]                 [2tx]
[----------------------------]
[----------------------------]
[*--------------------------*]Gtrs
[*--------------------------*]I&II
[--3-2-(2)------3-2-(2)------]
[--1-0-(0)------1-0-(0)------]
 
[----------------------------]
[----------------------------]
[*--------10~----------10~--*]Gtr
[*--------------------------*]III
[----------------------------]
[----------------------------]
 
[----------------------------]
[--------*12~----------12~---]
[*--------------------------*]Gtr
[*--------------------------*] IV
[----------------------------]
[----------------------------]

 ________________________
[* = Play last two times.]
[________________________]


[Riff I]
[-----------------------------------|-------------------------------------]
[-----------------------------------|-------------------------------------]
[*------10~---9/10\9------------10~-|-9/10\9-13\12------10~---9/10\9-----*]Gtrs
[*------------7/8 \710\9------------|-7/8 \7-11\10------------7/ 8\710\9-*]I&II
[--------------sl-sl-8\7------------|--sl-sl---sl--------------sl-sl-8\7--]
[--0-0----------------sl---0-0------|--------------0-0----------------sl--]
   . .                     . .                     . .
 
[-----------------------]
[-----------------------]
[*------10~------------*]Gtrs
[*------------2-3------*]I&II
[-------------0-1-3-2---]
[--0-0------------1-0---]
  . .


[Riff J]                             [2tx]
[-------------------|--------------------]
[-------------------|--------------------]
[*------------------|-------------------*]Gtrs
[*-3----------------|-3-----------------*]I&II
[--1---3---2-(2)----|-1---3---2-(2)------]
[------1---0-(0)----|-----1---0-(0)------]


[Riff K]         1,3  2.       4.
[--------------------|--------|-----------------|
[--------------------|--------|-----------------|
[*-9_6----10_7---7---|-10\9---|-----------------|Gtrs
[*--p-------p----7---|-10\9---|-8\7-5-----------|I&II
[------0------0------|---sl-0-|-8\7-5---3---2---|
[--------------------|--------|--sl-----1---0---|
       .      .             .     


Riff K [1tx]


[Riff L]
[-----------------------------|-----------------------------]
[-----------------------------|-----------------------------]
[*----------------------------|--------5~------------------*]Gtrs
[*--------4~------3~------/6~-|-5~-------------4~------3~--*]I&II
[--2--------------------------|--------3~-------------------]
[--0------2~------1~------/4~-|-3~-------------2~------1~---]


[Riff L.1]
[------------------|------------------]
[------------------|------------------]
[*-9--10--9--8--7--|-9--10--9--8--7--*]Gtrs
[*-----------------|-----------------*]I&II
[--7--8---7--6--5--|-7--8---7--6--5---]
[------------------|------------------]


[Fill 5]
[------------------------------|------------------------------]
[------------------------------|------------------------------]
[*-----------------------------|-----------------------------*]Gtrs
[*-----------------------------|-----------------------------*]I&II
[--7-8-7-6-5---7-8-7-6-5-------|-7-8-7-6---7-6---6-5----------]
[------------------------------|------------------------------]


[Riff M]
[------------------------------|------------------------------]
[------------------------------|------------------------------]
[*-----------------------------|-----------------------------*]Gtrs
[*-----------------------------|-----------------------------*]I&II
[--7-8-7-6-5-(5)-7-8-7-6-5-(5)-|-7-8-7-6-5-(5)-7-8-7-6-5-(5)--]
[------------------------------|------------------------------]


[Next]                         [Riff N]
[------------------------------|------------------------------]
[------------------------------|------------------------------]
[*-----------------------------|-----------------------------*]Gtrs
[*-9--10-----8------9------7---|----10------8------9------7--*]I&II
[--7--8------6------7------5---|----8-------6------7------5---]
[--7--8---00-6---00-7---00-5---|-00-8----00-6---00-7---00-5---]
          ..     ..     ..       ..      ..     ..     ..


[Fill 6]
[----------]
[----------]
[*--------*]Gtrs
[*-13-12--*]I&II
[--11-10---]
[--11-10---]


Riff C [2tx]
Outro
End!

Check Out Death8699.com, With More Transcriptions On It:
 http://www.death8699.co
Comments