At The Drive In - One Armed Scissor Chords & Tabs

 

One Armed Scissor Chords & Tabs

At The Drive In Chords & Tabs

Version: 4 Type: Tab 0 ratings
1 star 2 stars 3 stars 4 stars 5 stars
comments

One Armed Scissor Tab

I've had this tab up on my site for ages now, and noticed some1 posted a whole
load of At the Drive-in tabs, so I thought I'd post my version of one armed
scissor.
here you go

------------0-------------0---------------------------------------------------
-8-8-8-8-8--0--8-8-8-8-8--0---------------------------------------------------
-7-7-7-7-7--0--7-7-7-7-7--0---------------------------------------------------
-0-0-0-0-0--0--0-0-0-0-0--0---------------------------------------------------
-7-7-7-7-7-----7-7-7-7-7------------------------------------------------------
-0-0-0-0-0-----0-0-0-0-0------------------------------------------------------


------------------------------------------------------------14----------------
--------0-------------0--------0-------------0-----------15-------------------
------0-------------0--------0-------------0----------14----------------------
-9-10-----9-10-9-10-----9-10-----9-10-9-10-----9-10---------------------------
------------------------------------------------------------------------------
------------------------------------------------------------------------------
                                                               (repeat)      

------------0-----------------------------------------------------------------
-8-8-8-8-8--0--7-7-7-7-7------10-10-10-10-10-10-10-10-5-5-5-5-5-5-5-5---------
-7-7-7-7-7--0--7-7-7-7-7--2---10-10-10-10-10-10-10-10-5-5-5-5-5-5-5-5---------
-0-0-0-0-0--0--7-7-7-7-7--x---8--8--8--8--8--8--8--8--3-3-3-3-3-3-3-3---------
-7-7-7-7-7-----5-5-5-5-5--2---------------------------------------------------
-0-0-0-0-0--------------------------------------------------------------------
                                                              

------------------------------------------------------------------------------
-------0-----0-------0-----0-------0-------0-------0-------0------------------
-----0-----0-------0-----0-------0-------0-------0-------0--------------------
---2-----2-------2-----2-------2-------2-------2-------2----------------------
-0-------------0-------------0------------------------------------------------
-------------------------------------3-------2-------0------------------------
                                                               

------------------------------------------------------------------------------
------------------------------------------------------------------------------
------------------------------------------------------------------------------
-10-10-10-10-10-10-10-10-9--9--9--9--9--9--9--9--7-7-7-7-7-7-7-7-5-5-5-5-5-5--
-12-12-12-12-12-12-12-12-12-12-12-12-12-12-12-12-9-9-9-9-9-9-9-9-7-7-7-7-7-7--
------------------------------------------------------------------------------
 PM all...................................................................... 

------------------------------------------------------------------------------
------0--0--0--0--0--0--0--0--0--0--0--0--0--0--0--0--0-0-0-0-0-0-0-0-0-0-0---
------0--0--0--0--0--0--0--0--0--0--0--0--0--0--0--0--0-0-0-0-0-0-0-0-0-0-0---
-5-5--10-10-10-10-10-10-10-10-9--9--9--9--9--9--9--9--7-7-7-7-7-7-7-7-5-5-5---
-7-7--12-12-12-12-12-12-12-12-10-10-10-10-10-10-10-10-9-9-9-9-9-9-9-9-7-7-7---
------------------------------------------------------------------------------
 ............................................................................ 
[ Tab from: http://www.guitartabs.cc/tabs/a/at_the_drive_in/one_armed_scissor_tab_ver_4.html ]
------------------------------------------------------------------------------
-0-0-0-0-0--------------------------------------------------------------------
-0-0-0-0-0--------------------------------------------------------------------
-5-5-5-5-5--------------------------------------------------------------------
-7-7-7-7-7--------------------------------------------------------------------
------------------------------------------------------------------------------
 .........                                                                    

------------------------------------------------------------------------------
------------------------------------------------------------------------------
--------------13-------------12---------10------------------------------------
------------------------------------------------------------------------------
--10-10-10-10----9--9--9--9-----7-7-7-7----5-5-5-5-5-5-5-5-5-5-5-5-5-5-5-5----
--12-12-12-12----10-10-10-10----9-9-9-9----7-7-7-7-7-7-7-7-7-7-7-7-7-7-7-7----
 PM.......................................................................    

------------0-----------------------------------------------------------------
-8-8-8-8-8--0--7-7-7-7-7------------------------------------------------------
-7-7-7-7-7--0--7-7-7-7-7--2--10-10-10-10-10-10-10-10-5-5-5-5-5-5-5-5----------
-0-0-0-0-0--0--7-7-7-7-7--x--10-10-10-10-10-10-10-10-5-5-5-5-5-5-5-5----------
-7-7-7-7-7-----5-5-5-5-5--2--8--8--8--8--8--8--8--8--3-3-3-3-3-3-3-3----------
-0-0-0-0-0--------------------------------------------------------------------
                                                                 

------------------------------------------------------------------------------
-12-12-12-12-12-12-12-12-10-10-10-10-10-10-10-10-12-8-8-8-8-7-7-7-7-5-5-5-8---
-------------------------7--7--7--7--7--7--7--7--9----------------------------
-9--9--9--9--9--9--9--9-----------------------------5-5-5-5-5-5-5-5-2-2-2-5---
------------------------------------------------------------------------------
------------------------------------------------------------------------------
                                                                              

------------------------------------------------------------------------------
-8----------------------------------------------------------------------------
---8-8-8-8--------------------------------------------------------------------
-2----------------------------------------------------------------------------
---6-6-6-6--------------------------------------------------------------------
------------------------------------------------------------------------------
                                                                              

-0---2------3--2----0---2------3----------------------------------------------
-0---0------1--0----0---0------1----------------------------------------------
-0---0------0--2----0---0------0----------------------------------------------
-2---0------2--1----2---0------2----------------------------------------------
-2---x------3--2----2---x------3----------------------------------------------
-0---3--------------0---3-----------------------------------------------------
 PM..............................                                             

------------0-----------------------------------------------------------------
-8-8-8-8-8--0--7-7-7-7-7------------------------------------------------------
-7-7-7-7-7--0--7-7-7-7-7--2---10-10-10-10-10-10-10-10-5-5-5-5-5-5-5-5---------
-0-0-0-0-0--0--7-7-7-7-7--x---10-10-10-10-10-10-10-10-5-5-5-5-5-5-5-5---------
-7-7-7-7-7-----5-5-5-5-5--2---8--8--8--8--8--8--8--8--3-3-3-3-3-3-3-3---------
-0-0-0-0-0--------------------------------------------------------------------
Comments