At The Drive In - Napoleon Solo Chords & Tabs

 

Napoleon Solo Chords & Tabs

At The Drive In Chords & Tabs

Version: 2 Type: Tab 0 ratings
1 star 2 stars 3 stars 4 stars 5 stars
comments

Napoleon Solo Tab

   
Napoleon Solo -By- At the Drive-in

Intro/Verse - Guitar 2 (Jim)

1--0-7-10-7-0---|
2---------------|
3-9-------------|  (x24)
4---------------|
5---------------|
6---------------|

Intro/Verse - Guitar 1 (Omar)

1--0-7-10-7-0--0-5-7-5-0--0-5-7-5-0--0-5-7-5-0---|
2------------------------------------------------|
3-9----------7----------5----------7-------------| (x6)
4------------------------------------------------|
5------------------------------------------------|
6------------------------------------------------|

2nd Part of Verse - Guitar 2 (Jim)

1--0---0---0---0--|
2-7-7-8-8-7-7-5-5-|
3-----------------|    (x4)
4-----------------|
5-----------------|
6-----------------|

2nd Part of Verse - Guitar 1 (Omar)

1---------------------------------------10-----10-----10-----10----|
2--8---8----8----8---8----8----8---8-------------------------------|
3-9-9-9--9-9--9-9-9-7-7-7--7-7--7-7-7-12--12-12--12-12--12-12--12--|
4------------------------------------------------------------------|
5------------------------------------------------------------------|
6------------------------------------------------------------------|

1---------15-14-14---|
2---13-----13-13-13--|
3-12--12----12-12-12-|
4--------------------|
5--------------------|
6--------------------|

3rd Part of Verse - Guitar 2 (Jim)


1--0---0---0---0--|
2-7-7-8-8-7-7-5-5-|
3-----------------|    (x4)
4-----------------|
5-----------------|
6-----------------|

1--0---0---0----0---|
2-7-7-8-8-7-7-10-8--|
3-------------------|  (x4)
4-------------------|
5-------------------|
6-------------------|

3rd Part of Verse - Guitar 1 (Omar)

1---7--------10-----10-----10-----10----10-------15-14-14---|
2--8-----8--8--8-----------------------------13---13-13-13--|
3-9--9--7--7------12--12-12--12-12--12-12--12--12--12-12-12-|
4-----------------------------------------------------------|  (x2)
5-----------------------------------------------------------|
6-----------------------------------------------------------|

Pre Chorus - Guitar 1 (Omar)

1--0-7-10-7-0---0-7-10-0--|
2-------------------------|
3-9-----------9-----------|
4-------------------------|
5-------------------------|
6-------------------------|

Chorus - Guitar 2 (Jim)

  Em     Bm     D      C
1-0------2------2------0------|
2-0------3------3------1------|
3-0-(x6)-4-(x6)-2-(x6)-0-(x6)-|  (x4)
4-2------4------0------2------|
5-2------2------X------3------|
6-0------X------X------0------|

Chorus - Guitar 1 (Omar)

1--------------------------------------------------------|
2-7-7-7-8-8-8-7-7-7-8-8-8-10-10-10-12-12-12-----------10-|
3------------------------------------------12-12-12-12---|
4--------------------------------------------------------|  (x4)
5--------------------------------------------------------|
6--------------------------------------------------------|

2nd Verse -  Guitar 2 (Jim)

[ Tab from: http://www.guitartabs.cc/tabs/a/at_the_drive_in/napoleon_solo_tab_ver_2.html ]
1--0-7-10-7-0--0-5-7-5-0--0-5-7-5-0--0-5-7-5-0---|
2------------------------------------------------|
3-9----------7----------5----------7-------------| (x4)
4------------------------------------------------|
5------------------------------------------------|
6------------------------------------------------|

2nd Verse - Guitar 1 (Omar) Strummed lightly - light distortion

  Em D  C C  C C  C C
1-0--2--0-0--0-0--0-0--------|
2-0--3--1-1--1-1--1-1--------| (x4) (be Sure to play the C chords accented with
3-0--2--0-0--0-0--0-0--------|       drums and bass in the sets of 2 and for the
4-2--0--2-2--2-2--2-2--------|       intro into the next chorus)
5-2--X--3-3--3-3--3-3--------|
6-0--X--0-0--0-0--0-0--------|

Chorus - same as before - (x4)

Interlude - Guitar 1 (Omar)

1---19--19----5--7----0-----0-----0----0-----------------------------|
2--19--19-----7--8--12-12-12-12-10-10-8-0----------------------------|
3-19--19------7--9-------------------------  (x5)- only play the 19--| fret
4--------------------------------------------------------------------|        harmonics first time
5--------------------------------------------------------------------|        listen to the song and
6--------------------------------------------------------------------|        you will hear
    -After 5th time- (intro into outro)
1-0--0--0--0--0--0--0--0--0--0--0--0---|
2-10-10-10-12-12-12-13-13-13-13-13-13--|
3--------------------------------------|
4--------------------------------------|
5--------------------------------------|
6--------------------------------------|

Interlude -  Guitar 2 (Jim)

1--------------------------------|
2-7-0---7-0----7-8-8-7-8-8-7-----|
3----7-0---7-0--------------9-7--| (x5)
4--------------------------------|
5--------------------------------|
6--------------------------------|
-After 5th time- (intro into outro)
1--------------0--0--0--0--0--0--0--0--0--|
2-7-0---7-0---12-12-12-13-13-13-13-13-13--|
3----7-0---7-0----------------------------|
4-----------------------------------------|
5-----------------------------------------|
6-----------------------------------------|

Bridge - Guitar 1 (Omar)

  Em D  C C  C C  C C
1-0--2--0-0--0-0--0-0--------|
2-0--3--1-1--1-1--1-1--------| (x4) (be Sure to play the C chords accented with
3-0--2--0-0--0-0--0-0--------|       drums and bass in the sets of 2)
4-2--0--2-2--2-2--2-2--------|
5-2--X--3-3--3-3--3-3--------|
6-0--X--0-0--0-0--0-0--------|

Bridge - Guitar 2 (Jim)

1--0-7-10-7-0--0-5-7-5-0--0-5-7-5-0--0-5-7-5-0---|
2------------------------------------------------|
3-9----------7----------5----------7-------------| (x4)
4------------------------------------------------|
5------------------------------------------------|
6------------------------------------------------|

Outro - Both Guitars

  Em     Bm     D      C
1-0------2------2------0-------|
2-0------3------3------1-------|
3-0-(x6)-4-(x6)-2-(x6)-0-------|(x6)-  (x4) - on the 4th time end on D
4-2------4------0------2-------|
5-2------2------X------3-------|
6-0------X------X------0-------|

ATDI 4 ever--pretty sure this is 100%
Comments