At The Drive-in - Napolean Solo Chords & Tabs

 

Napolean Solo Chords & Tabs

At The Drive-in Chords & Tabs

Version: 1 Type: Bass Tab 0 ratings
1 star 2 stars 3 stars 4 stars 5 stars
comments

Napolean Solo Bass Tab

   
E,A,D,G
3/4 time
use a pick if you want to get the same sound

after 44 seconds:

bass intro
------|x4 |------|x2 |--------|x2
------|   |------|   |--------|
2-2-2-|   |3-3-3-|   |10---10-|
------|   |------|   |--------|
               ^slide from 3 to 10 the second time
first verse
------------------------------------------------|
------------------------------------------------|
7---7-7---7-7---7-7---5-2-2-2-2-2-2-2-2-2-2-2-2-|
------------------------------------------------|

------------------------------------------------|x2
------------------------5-5-5-5-5-5-5-5-5-5-5-5-|
3-3-3-3-3-3-3-3-3-3-3-3-------------------------|
------------------------------------------------|

after second time, play a quick low E and then rest
for a sec.

chorus
------------------------------------------------|x4
------2-2-2-------------0-0-0-0-0-0-------------|
------------2-2-2-2-2-2-------------3-3-3-3-3-3-|
0-0-0-------------------------------------------|

second verse (i guess)
------------------------------------------------|
------2-2-2-0-0-0-0-0-0-------------------------|
------------------------3-3---3-3---3-3---3-3---|
0-0-0-------------------------------------------|

------------------------------------------------|
----------5-0-0-0-0-0-0-------5---5-------5---5-|
------------------------3---3-------3---3-------|
0-0-0-0-0---------------------------------------|
			^^let 3's and 5's ring^^
------------------------------------------------|
------------0-0-0-0-0-0-------------------------|
------------------------3-3---3-3---3-3---3-3---|
0-0-0-0-0-0-------------------------------------|
[ Tab from: http://www.guitartabs.cc/tabs/a/at_the_drive_in/napolean_solo_btab.html ]
------------------------------------------------|
----------5-0-0-0-0-0-0-------5-5-5-------5-5-5-|
------------------------3-3-3-------3-3-3-------|
0-0-0-0-0---------------------------------------|
			^^let 3's and 5's ring^^
------------------------------------------------|
------2-2-2-0-0-0-0-0-0-------------------------|
------------------------3-3---3-3---3-----------|
0-0-0-------------------------------------------|

chorus x4

bass solo            those are twelves and tens
-----------------------------------------------------|
-----------------------------------------------------|
-----------------------------------------------------|
0-0-0-7-7-7-8-8-8-8-8-8-0-0-0-12-0-0-12-0-0-10-10-10-|

---------------------------------------------------|
---------------------------------------------------|
---------------------------------------------------|
7-7-7-7-7-7-8-8-8-8-8-8-0-0-0-12-0-0-10-0-0108-8-8-|
                         the 0108 is 0,10,8 but fast
part after solo
------------------------------------------------|x6
------------------------------------------------|
------------------------------------------------|
7-7-7-7-7-7-8-8-8-8-8-8-0-0-0-0-0-0-0-0-0-0-0-0-|

thing that sounds like the second verse
------------------------------------------------|
2-2-2-2-2-2-0-0-0-0-0-0-------------------------|
------------------------3-3---3-3---3-3---3-3---|
------------------------------------------------|

------------------------------------------------|
------2-2-5-0-0-0-0-0-0-------5---5-------5---5-|
------------------------3---3-------3---3-------|
0-0-0-------------------------------------------|
			^^let 3's and 5's ring^^
ending scream part
------------------------------------------------|
------2-2-2-0-0-0-0-0-0-------------------------|
------------------------3-3-3-3-3-3-3-3-3-3-3-3-|
0-0-0-------------------------------------------|

------------------------------------------------|
----------5-0-0-0-0-0-0-------------------------|
------------------------3-3-3-3-3-3-3-3-3-3-3-3-|
0-0-0-0-0---------------------------------------|

------------------------------------------------|
2-2-2-5-5-5-0-0-0-0-0-0-------------------------|
------------------------3-3-3-3-3-3-3-3-3-3-3-3-|
------------------------------------------------|

------------------------------------------------|
2-2-2-2-2-5-0-0-0-0-0-0-------------------------|
------------------------3-----------------------|
------------------------------------------------|
Comments