At The Drive-in - Lopsided Chords & Tabs

 

Lopsided Chords & Tabs

At The Drive-in Chords & Tabs

Version: 1 Type: Tab 0 ratings
1 star 2 stars 3 stars 4 stars 5 stars
comments

Lopsided Tab

   
-----------------------------------------------------------------------------
			   Lopsided by At The Drive-In
-----------------------------------------------------------------------------
Tabbed by: Isaac Yankeem Steffenboytoyboy

Tuning: standart tuning

1st part (guitar 1)
e|---------------------------------------------------------|
B|---------------------------------------------------------|
G|------666-666-666-666---9 9 9----------------------------| 3x
D|-777--777-777-777-777---9 9 9--777-777-777-777-777-------|
A|-555-(666-666-666-666)--9 9 9--555-555-555-555-555-------|
E|-333--777-777-777-777--101010--333-333-333-333-333-------|


2nd part (guitar 1)
e|(555..........)--(333...........)---------------------------------------|
B|(555..........)--(333...........)---------------------------------------|
G|-777...........--(333...........)---------------------------------------|4x
D|-777a few times---555...........-I think the powerchords are enough, but|
A|-555...........---555a few times-----try on your own, what you like most|
E|(555..........)---333...........----------------------------------------|
[ Tab from: http://www.guitartabs.cc/tabs/a/at_the_drive_in/lopsided_tab.html ]
(guitar 2)
e|-----------------14-----------10-----------14-|
B|----10------10-------10-----------10----------|
G|--------11---------------11-----------11------| 4x
D|----------------------------------------------|
A|----------------------------------------------|
E|----------------------------------------------|

- 1st part 3x -
- 2nd part 4x (both guitars) -
- 2nd part 4x (guitar 1) and guitar 2 plays:

e|-14-----------10----------|
B|-----10-----------10------|
G|---------11-----------11--| 4x
D|--------------------------|
A|--------------------------|
E|--------------------------|

3rd part (I think both guitars)
e|-------------------|
B|-------------------|
G|-6~-/9-------------|
D|-7~-/9--777....555-| 4x and let ring
A|-5~-/7--555....555-|
E|--------333....333-|

- 2nd part 4x (both guitars) -

guitar 1 (optional)
E|-10-8-7-5-3-2-0-5-|

guitar 2
e|-14-----------10----------|
B|-----10-----------10------|
G|---------11-----------11--| 4x
D|--------------------------|
A|--------------------------|
E|--------------------------|

- 3rd part 4x - 

outro

guitar 1
e|----|
B|----|
G|-6--| follow through the end of the guitar part with this chord
D|-7--|
A|-5--|
E|----|

guitar 2
E|-7~--3~--7~--3~--7~-|


nice song... 
I did tap it out on my way and it sounds not so bad(I think *lol*). 
so...have a nice day!
Comments