At The Drive In - Invalid Litter Dept Chords & Tabs

 

Invalid Litter Dept Chords & Tabs

At The Drive In Chords & Tabs

Version: 1 Type: Bass Tab 0 ratings
1 star 2 stars 3 stars 4 stars 5 stars
comments

Invalid Litter Dept Bass Tab

intro
-----------------------------|
-----------------------------|
-----------------------------|
7--5/10-10-10-3-2-33-2-3-3---|  x2

----------------------------------------|
----------------------------------------|
----9-----------------------------------|           x2
7-5--5/10-10-10-3-2-33-2-3-3------------|

verse x3
-----------|
-----------|
-----------|
10-10101010 x4

-----------------|
-----------------|
----------999-55-|
7-77-77----------|

chorus x4
------------------------------|
------------------------------|
----5-----5-----5-----5-----5-|
5-7---5-7---5-7---5-7---5-7---|

------------------|
------------------|
------------------|
33333333-2222-5555
[ Tab from: http://www.guitartabs.cc/tabs/a/at_the_drive_in/invalid_litter_dept_btab.html ]
verse2
-----------------------------|
-----------------------------|
-----------------------------|
7--5/10-10-10-3-2-33-2-3-3---|  x2

then this x3
-----------|
-----------|
-----------|
10-10101010 x4

--------------------|
--------------------|
-----------999-55---|
7-77-77-------------|

chorus
intro
verse
chorus
--
--
--
-7

ending x4

------------|
------------|
------------|
777757-77757

------------|
------------|
------------|
3333323-33323

-------------|
-------------|
-------------|
332333-775777

last time
------------|
------------|
------------|
777757-77757

------------|
------------|
------------|
3333323-33323

-------------------------|
-------------------------|
-------------------------|
332333-77577777777777--7-|
Comments