At The Drive In - Hourglass Chords & Tabs

 

Hourglass Chords & Tabs

At The Drive In Chords & Tabs

Version: 1 Type: Tab 0 ratings
1 star 2 stars 3 stars 4 stars 5 stars
comments

Hourglass Tab

At the drive in
  Hourglass –in/casino/out
Tabbed by Ben Williams

   O.K. first things first, this is my first tab and I know its way off but this is a quality song that no ones tabbed yet, which is a travesty, so hopefully someone will correct my mistakes and do this properly! Oh this is all my own work

Verse: this is played by a guitar and a piano I think but hey just listen to the song

E---------------------------------------------------------------------------------------
B---------------------------------------------------------------------------------------
G—9—7—9—0—5—2—5—0—9—7—9—0—5—2—5—0---------------
D---------------------------------------------------------------------------------------
A---------------------------------------------------------------------------------------
E --------------------------------------------------------------------------------------

I’m all alone part
E-----------------------------------------------------------------------------------------
B-----------------------------------------------------------------------------------------
G—9------------------------------------------------------------------------------------
D—X-------5------------------------------------------------------------------------
A—7-------X--------------------------------------------------------------------------
E------------3----------------------------------------------------------------------------
[ Tab from: http://www.guitartabs.cc/tabs/a/at_the_drive_in/hourglass_tab.html ]
Truly stressing part
E----------0------0-------------------0-----0---------------0-------0-----------------
B------------0------0-------------------0-----0--------------0-------0---------------
G—9---9------9-------9----5—-5------5---------------0------0-------------
D—9-9------9-------9------5--5------5-----------5--0------0--------------------
A—7------------------------3----------------------5—---------------------
E----------------------------------------------------3---------------------------
 
Then for the distorted bit just play the chords for guitar 1 and a cross between the truly stressing bit and the outro
E-------------------------------------------------------------------------
B-------------------------------------------------------------------------
G—9—9—9—9—5—5—5—5-------------------------------------
D—9—9—9—9---5—5—5—5—5—5—5—5—5—5—5—5-
A—7—7—7—7—3—3—3—3—5—5—5—5—5—5—5—5
E---------------------------------------3—3—3—3—3—3—3—3-



Outro
E-----0----0--------0------0---------0------0-----------0----0---0----0-----0----0------0------0--0
B------0----0---------0------0---------0------0-----------0---0---0-----0----0----0-------0-----5--
G—9---9----9—5-----5------5----------------------9-----9---5---5----------------5-------5-------
D-----------------------------------0------0---------------------------------0-----0------0------0-----
A---------------------------------------------------------------------------------------------------------
E---------------------------------------------------------------------------------------------------------
 The other guitar needs to strum the chords once with each change over

Right that’s the best I can do, theres a guitar part in the verse that sounds pretty easy but I cant get it
Goukiband@hotmail.com
Comments