At The Drive-in - Fahrenheit Chords & Tabs

 

Fahrenheit Chords & Tabs

At The Drive-in Chords & Tabs

Version: 1 Type: Bass Tab 0 ratings
1 star 2 stars 3 stars 4 stars 5 stars
comments

Fahrenheit Bass Tab

   
TUNING: E,A,D,G

verse
----------------------------.---|
2-2-2-----------------------2---|
------2-2-2-2-5-5-5-5-4-4-4-----|
--------------------------------|

----------------------------.---|
2-2-2-----------------------2---|
------2-2-2-2-5-5-5-5-4-4-4-----|
--------------------------------|

----------------------------.---|
2-2-2-----------------------2---|
------2-2-2-2-5-5-5-5-4-4-4-----|
--------------------------------|

----------------------------.---|
2-2-2-----------------------2---|
------2-2-2-2-5-5-5-5-4-4-4-----|
--------------------------------|

----------------------------.---|
2-2-2-----------------------2---|
------2-2-2-2-5-5-5-5-4-4-4-----|
--------------------------------|

----------------------------.---|
2-2-2-----------------------2---|
------2-2-2-2-5-5-5-5-4-4-4-----|
--------------------------------|

verse ending
--------------------------------|
2-2-2---------0-----------------|
------2-2-2-2-------------------|
--------------------------------|

chorus
-------------------------------------------|
-------------------------------------------|
-------------------------------------------|
0-12-12-0-12-12-0-12-12-0-12-12-0-12-12-12-|

---------------------------------------|
---------------------------------------|
---------------------------------------|
10-10-10-10-10---10-10-8-8-8-8-8---8-8-|

-------------------------------------------|
-------------------------------------------|
-------------------------------------------|
0-12-12-0-12-12-0-12-12-0-12-12-0-12-12-12-|
[ Tab from: http://www.guitartabs.cc/tabs/a/at_the_drive_in/fahrenheit_btab.html ]
---------------------------------------|
---------------------------------------|
---------------------------------------|
10-10-10-10-10---10-10-8-8-8-8-8---8-8-|

verse (four times)
----------------------------.---|
2-2-2-----------------------2---|
------2-2-2-2-5-5-5-5-4-4-4-----|
--------------------------------|

chorus (eight times)
-------------------------------------------|
-------------------------------------------|
-------------------------------------------|
0-12-12-0-12-12-0-12-12-0-12-12-0-12-12-12-|

---------------------------------------|
---------------------------------------|
---------------------------------------|
10-10-10-10-10---10-10-8-8-8-8-8---8-8-|


screaming part (four times)
------------------------|
------------------------|
------------------------|
12--12--12--12--10/12---|

chorus (two times)
-------------------------------------------|
-------------------------------------------|
-------------------------------------------|
0-12-12-0-12-12-0-12-12-0-12-12-0-12-12-12-|

-----------------------------------------|
-----------------------------------------|
-----------------------------------------|
10-10-10-10-10---10-10-8-8-8-8-8---8-----|

verse (three times)
----------------------------.---|
2-2-2-----------------------2---|
------2-2-2-2-5-5-5-5-4-4-4-----|
--------------------------------|

verse ending (once)
--------------------------------|
2-2-2---------0-----------------|
------2-2-2-2-------------------|
--------------------------------|

outro (once)
------------------------|
------------------------|
------------------------|
12--12--12--12--10/12---|
Comments