Asteroidica - Under The Ice Chords & Tabs

 

Under The Ice Chords & Tabs

Asteroidica Chords & Tabs

Version: 1 Type: Tab 0 ratings
1 star 2 stars 3 stars 4 stars 5 stars
comments

Under The Ice Tab

   
#----------------------------------PLEASE NOTE--------------------------------#
#This file is the author's own work and represents their interpretation of the#
#song. You may only use this file for private study, scholarship, or research.#
#-----------------------------------------------------------------------------#
#-- File created with Instab - http://www.pconline.com/~smcarey/instab.html --#
#-----------------------------------------------------------------------------#

WWW.ASTEROIDICA.TK

Author/Artist: asteroidica
Title: under the ice
Album: Ghost of The Abyss
Transcribed by: Ohlsson/Karlsson
Live Version! First Asteroidica Song Written!

 G.1 [Ohlsson] Intro
-|----------------------------------------------------------------|--|--------|
-|----------------------------------------------------------------|--|--------|
-|----------------------------------------------------------------|4x|--------|
-|-----7-----7-----5-----5-----5-------5-----5-----3-----3-----3--|--|--------|
-|-5-5---5-5---5-5---5-5---5-5---5-3-3---3-3---3-3---3-3---3-3---3|--|--------|
-|----------------------------------------------------------------|--|--------|

 G.2 [Karlsson] Intro
-|----------------------------------------------------------------|--|--------|
-|----------------------------------------------------------------|--|--------|
-|----------------------------------------------------------------|2x|--------|
-|-7-7-7-7-7-7-7-7-7-7-7-7-7-7-7--5-5-5-5-5-5-5-5-5-5-5-5-5-5-5-5-|--|--------|
-|-5-5-5-5-5-5-5-5-5-5-5-5-5-5-5--3-3-3-3-3-3-3-3-3-3-3-3-3-3-3-3-|--|--------|
-|----------------------------------------------------------------|--|--------|

 G.1 Begins With Plektrum Scratch! Riff B
-|--------------------------------------------------------------|--|----------|
-|--------------------------------------------------------------|--|----------|
-|-7-9-10-7-9-10-\12-10-9-h10-9-7v---7-9-10-7-9-10-\12-10-12-12b|2x|----------|
-|--------------------------------------------------------------|--|----------|
-|--------------------------------------------------------------|--|----------|
-|--------------------------------------------------------------|--|----------|

 G.2         Riff B
-|--------------------------------------------------------------|--|----------|
-|--------------------------------------------------------------|--|----------|
-|-7---7---7-7-7-7-7-7---7---7-7-7--5---5---5-5-5-5---5---5-5-5-|4x|----------|
-|-7-7---7-7-7-7-7-7-7-7---7-7-7-7--5-5---5-5-5-5-5-5---5-5-5-5-|--|----------|
-|-5-------5-5-5-5-5-5-------5-5-5--3-------3-3-3-3-------3-3-3-|--|----------|
-|--------------------------------------------------------------|--|----------|

 G.1 Riff C
-|-------------------------------------------------------|--------------------|
-|-------------------------------------------------------|--------------------|
-|-7v---9v---10b-10b-10b--9v----7v---9v---10b----------9v|--------------------|
-|-----0----0------------0-----0----0----0------------0--|--------------------|
-|-------------------------------------------------------|--------------------|
-|-------------------------------------------------------|--------------------|

 G.2 Riff C
-|-------------------------------------------------------|--|-----------------|
-|-------------------------------------------------------|--|-----------------|
-|-7----------------9--5---------------------------------|2x|-----------------|
-|-7-7-7-7-7-7-7-7--9--5-5-5-5-5-5-5-5-------------------|--|-----------------|
-|-5-5-5-5-5-5-5-5--7--3-3-3-3-3-3-3-3-------------------|--|-----------------|
-|-------------------------------------------------------|--|-----------------|

 Riff C Ending Both Guitars:
-|------------------------------------------|---------------------------------|
-|------------------------------------------|---------------------------------|
-|---7-----------7------------7-----------7-|---------------------------------|
-|---7-----------7------------7-----------7-|---------------------------------|
-|-0-5---------0-5----------0-5---------0-5-|---------------------------------|
-|------------------------------------------|---------------------------------|

 G:1 Solo Comp   1                                             2
-|------------------------------|--|------------------------------------------|
-|------------------------------|--|------------------------------------------|
-|------------------------------|2x|------------------------------------------|
-|-9-------10-----9-----7-----9-|--|-7--7-7--7-8-7-5--5-5-7-----7-----8-------|
-|-7-7-7-7-7--7-7-7-7-7-7-7-7-7-|--|-5--5-5--5-5-5-5--5-5-5-5-5---5-5---5-5---|
-|------------------------------|--|------------------------------------------|

          1   2                               3
---------|---|---|------------------------------------------------------------|
---------|2x-|1x-|------------------------------------------------------------|
---------|---|---|------------------------------------------------------------|
-5-----7-|---|---|------------------------------------------------------------|
---5-5---|---|---|-7---------------------------5-------------------------3----|
---------|---|---|-5-5-5-5-5-5-5-5-5-5-5-5-5-5-3-3-3-3-3-3-3-3-3-3-3-3-3-1-1--|
                                                                    4

-------------------------------------------------|--|-------------------------|
-------------------------------------------------|--|-------------------------|
-------------------------------------------------|4x|--------------------7----|
-------------------------------------------------|--|-2------------------7----|
-----------------------5-------------------------|--|-2-------2-----2----5-5--|
-1-1-1-1-1-1-1-1-1-1-1-3-3-3-3-3-3-3-3-3-3-3-3-3-|--|-0-0-0-0-0-0-0-0---------|
                                     5

--------------------------------|--|---|--------------------------------------|
--------------------------------|--|---|--------------------------------------|
----------------5---------------|3x|---|--------------------------------------|
-----7-----7----5-------5-----5-|--|-2-|--------------------------------------|
-5-5-5-5-5-5----3-3-3-3-3-3-3-3-|--|-2-|--------------------------------------|
--------------------------------|--|-0-|--------------------------------------|

 G.2 Solo
-|-7p0-0-0-8p0-0-0-10p0-0-0-8p0-0-0--7p0-0-0--8p0-0-0-10p0-0-0-8p0-0-0--7p0-0-|
-|----------------------------------------------------------------------------|
-|----------------------------------------------------------------------------|
-|----------------------------------------------------------------------------|
-|----------------------------------------------------------------------------|
-|----------------------------------------------------------------------------|


--0-8p0-0-0-10p0-0-0-8p0-0-0-7p0-0-0-8p0-0-0-10p0-0-0-8p0-0-0-----------------|
--------------------------------------------------------------12b12b12b12b12b-|
--------------------------------------------------------------15b15b15b15b15b-|
------------------------------------------------------------------------------|
------------------------------------------------------------------------------|
------------------------------------------------------------------------------|


------------------------------------------------------------------------------|
-12b-12-12-15p12-12-12-17p12-12-12-15p12-12-12-17p12-12-12-15p12-12-12-17p12--|
-15b--------------------------------------------------------------------------|
------------------------------------------------------------------------------|
------------------------------------------------------------------------------|
------------------------------------------------------------------------------|


------------------------------------------------------------------------------|
-12-12-15p12-12-12-17p12-12-12---17p12-12-12-15p12-12-12-17p12-12-12-15p12----|
------------------------------------------------------------------------------|
------------------------------------------------------------------------------|
------------------------------------------------------------------------------|
------------------------------------------------------------------------------|


------------------------------------------------------------------------------|
-12-12-17p12-12-12-15p12-12-12--17p12-12-12-15p12-12-12-12b12b12b12b12b12-----|
--------------------------------------------------------15b15b15b15b15b12-----|
------------------------------------------------------------------------------|
------------------------------------------------------------------------------|
------------------------------------------------------------------------------|


------------------------------------------------------------------------------|
-12-12-15p12-12-12-17p12-12-12-15p12-12-12-17p12-12-12-15p12-12-12-17p12-12---|
------------------------------------------------------------------------------|
------------------------------------------------------------------------------|
------------------------------------------------------------------------------|
------------------------------------------------------------------------------|

[ Tab from: http://www.guitartabs.cc/tabs/a/asteroidica/under_the_ice_tab.html ]
----------------------------7p0-0-0-8p0-0-0-10p0-0-0-8p0-0-0-7p0-0-0-8p0-0-0--|
-12-15p12-12-12-17p12-12-12---------------------------------------------------|
------------------------------------------------------------------------------|
------------------------------------------------------------------------------|
------------------------------------------------------------------------------|
------------------------------------------------------------------------------|


-10p0-0-0--8p0-0-0-7p0-0-0-8p0-0-0-10p0-0-0-8p0-0-0-7p0-0-0-8p0-0-0-10p0-0-0--|
------------------------------------------------------------------------------|
------------------------------------------------------------------------------|
------------------------------------------------------------------------------|
------------------------------------------------------------------------------|
------------------------------------------------------------------------------|


-8p0-0-0----------------------------------------------------------------------|
---------12b12b12b12-12-12-15-15-17-17-15-15-12\------------------------------|
---------15b15b15b15-----------------------------2--5-4-5-7--10-10-9-10-12----|
------------------------------------------------------------------------------|
------------------------------------------------------------------------------|
------------------------------------------------------------------------------|


------------------------------------------------------------------------------|
---------------------------------------------10-12-13-10-12-13-10-12-13-10----|
-10-7--2--5-4-5-7-7b-10-10-9-10-12-12-12-12-----------------------------------|
------------------------------------------------------------------------------|
------------------------------------------------------------------------------|
------------------------------------------------------------------------------|


-------------------------10---------------------------------------------------|
-12-13-10-12-13-10-12-13----13-12-13-12-8--10-12-13-10-12-13-10-12-13-10-12---|
------------------------------------------------------------------------------|
------------------------------------------------------------------------------|
------------------------------------------------------------------------------|
------------------------------------------------------------------------------|


----------------------10----10-11---------------------------------------------|
-13-10-12-13-10-12-13----13-----------12-----10-----8-----10-----8-----7------|
----------------------------------9-9----9-9----9-9---7-7----7-7---7-7--------|
------------------------------------------------------------------------------|
------------------------------------------------------------------------------|
------------------------------------------------------------------------------|


------------------------------------------------------------------------------|
-----8-----7-----5------12-----10-----8-----10-----8-----7------8-----7-------|
-5-5---5-5---5-5----9-9----9-9----9-9---7-7----7-7---7-7----5-5---5-5---5-5---|
------------------------------------------------------------------------------|
------------------------------------------------------------------------------|
------------------------------------------------------------------------------|


-----------------------------------------------------------------------------|
-5-----12-----10-----8-----10-----8-----7-----8-----7------5-----------------|
---9-9----9-9----9-9---7-7----7-7---7-7---5-5---5-5---5-5--------------------|
-----------------------------------------------------------------------------|
-------------------------------------------------------------3-2-3-5-3-2-----|
-----------------------------------------------------------------------------|

 Verse Both Guitars
-|----------------------------------------------------------------------------|
-|----------------------------------------------------------------------------|
-|-5--------7-----------------------------------------------------------------|
-|-5--------7-----------------------------------------------------------------|
-|-3--------5--5-5-5-5-5-5-5-5-2---------------------5-7--2-------------------|
-|-----------------------------0-0-0-0-0-0-0-0-0-0-0-3-5--0-0-0-0-0-0-0-0-0-0-|


------------------------------------------------------|--|--------------------|
------------------------------------------------------|--|--------------------|
---------5---7----------------------------------------|2x|--------------------|
---------5---7-----5-7-------7-5-7----5-7-------7-5-7-|--|--------------------|
----3-5--3---5---2-3-5---2---5-3-5--2-3-5---2---5-3-5-|--|--------------------|
--0-1-3----------0-----0-0-0--------0-----0-0-0-------|--|--------------------|

 Bridge Both Guitars
-|----------------------------------------------------------------------------|
-|----------------------------------------------------------------------------|
-|-7-----5-----------7-----------------------------7-----5-----------7-----5--|
-|-7-----5---2-------7-----------------------------7-----5---2-------7-----5--|
-|-5-----3---2--3-5--5----2---3-------2---5--------5-----3---2--3-5--5-----3--|
-|-----------0--1-3-------0-0-1-1-1-1-0-0-3-3-3-3------------0--1-3-----------|


----------------------------------------------------|-------------------------|
----------------------------------------------------|-------------------------|
----------------------------------------------------|-------------------------|
----------------------------------------------------|-------------------------|
-2--3-5--2--3-5-------------------------------------|-------------------------|
-0--1-3--0--1-3-3-3-3-3-3-3-3-3-3-3-3-3-3-3-3-3-3-3-|-------------------------|

 Refr Both Guitars
-|----------------------------------------------------------------------------|
-|----------------------------------------------------------------------------|
-|-------------------------------------------------------------5-5-5-5-5-5-5--|
-|-7-7-7-7-7-7-7-7-7-7-7-7-7-7-7--5-5-5-5-5-5-5-5-5-5-5-5-5-5--5-5-5-5-5-5-5--|
-|-7-7-7-7-7-7-7-7-7-7-7-7-7-7-7--5-5-5-5-5-5-5-5-5-5-5-5-5-5--3-3-3-3-3-3-3--|
-|-5-5-5-5-5-5-5-5-5-5-5-5-5-5-5--3-3-3-3-3-3-3-3-3-3-3-3-3-3-----------------|


-------------------------------------------------------------------------|---|
-------------------------------------------------------------------------|---|
-5-5-5-5-5-5-5-5-5-------------------------------------------------------|2x-|
-5-5-5-5-5-5-5-5-5-3-3-3-3-3-3-3-3-3-3-3-3-3-3--5-5-5-5-5-5-5-5-5-5-5-5-7|---|
-3-3-3-3-3-3-3-3-3-3-3-3-3-3-3-3-3-3-3-3-3-3-3--5-5-5-5-5-5-5-5-5-5-5-5-7|---|
-------------------1-1-1-1-1-1-1-1-1-1-1-1-1-1--3-3-3-3-3-3-3-3-3-3-3-3-5|---|

 G.1  Interlude
-|---------------------------------------------------------|--|---------------|
-|---------------------------------------------------------|--|---------------|
-|---------------------------------------------------------|2x|---------------|
-|---3-5-6-5-3----5-7-8-7-5----7-9-10-9-7---7-9-10-9-7-----|--|---------------|
-|-3------------5------------7------------7----------------|--|---------------|
-|---------------------------------------------------------|--|---------------|

 G.2  Interlude
-|------------------------------------------|---------------------------------|
-|------------------------------------------|---------------------------------|
-|-5------------7------------9------------9-|---------------------------------|
-|-5------------7------------9------------9-|---3-5-6-5-3---5-7-8-7-5---7-9---|
-|-3------------5------------7------------7-|-3-----------5-----------7-------|
-|------------------------------------------|---------------------------------|


--------------------------------------------------------------------------|--|
--------------------------------------------------------------------------|--|
--------------------------------------------------------------------------|--|
-10-9-7---7-9-10-9-7------------------------------------------------------|--|
--------7-----------------------------------------------------------------|--|
--------------------------------------------------------------------------|--|

 G.1 Outro                             Ends:
-|------------------------------|--|----------------------|-------------------|
-|------------------------------|--|----------------------|-------------------|
-|--7v----9v----10b-10b-10b--5v-|4x|----------------------|-------------------|
-|-0-----0-----0------------0---|--|-2--------------------|-------------------|
-|------------------------------|--|-2--------------------|-------------------|
-|------------------------------|--|-0--------------------|-------------------|

 G.2 Outro
-|----------------------------------------------------------------------------|
-|----------------------------------------------------------------------------|
-|-7-----9--5----7----9--5----7---9---5----7--9--5-7p6p5p0--------------------|
-|-7-----9--5----7----9--5----7---9---5----7--9--5--------7p6p5p0-------------|
-|-5-----7--3----5----7--3----5---7---3----5--7--3---------------7p6p5p0------|
-|----------------------------------------------------------------------------|


-----------------------------------------------------------------------------|
-----------------------------------------------------------------------------|
-----------------------------------------------------------------------------|
---------2-------------------------------------------------------------------|
---------2-------------------------------------------------------------------|
-7p6p5p0-0-------------------------------------------------------------------|

Track Model:
[Intro]
[Riff B]
[Riff C]
[Solo + Comp]
[Verse]
[Bridge]
[Refr]
[Interludium]
[Verse]
[Bridge]
[Refr]
[Outro]
Comments