Asteroidica - Fear Nothing Chords & Tabs

 

Fear Nothing Chords & Tabs

Asteroidica Chords & Tabs

Version: 1 Type: Tab 0 ratings
1 star 2 stars 3 stars 4 stars 5 stars
comments

Fear Nothing Tab

   
#----------------------------------------------------------------------------#
#-- File created with Instab - http://www.pconline.com/~smcarey/instab.html -#
#---------------------------------------------------------------------------#

WWW:ASTEROIDICA.TK

Author/Artist: Asteroidica
Title: Fear Nothing
Transcribed by: Jimmy Karlsson
Email: jimmykarlsson430@hotmail.com

Tuning D

-|----------------------------------------------------------------------------|
-|----------------------------------------------------------------------------|
-|-------------------------------5-4------------------------------------------|
-|-----4h5p4---4-4h5p4-----4h5p4-----5-4-----4h5p4---4-4h5p4-----4h5p4-5-7----|
-|-7-7-------7---------7-7---------------7-7-------7---------7-7-------3-5----|
-|----------------------------------------------------------------------------|
 G:1 Above... G:2 Below

-|---------------------------------------------------------------------------|
-|---------------------------------------------------------------------------|
-|------------------------------------9-7------------------------------------|
-|-------7h9p7----7-7h9p7-------7h9p7-----10-9-------7h9p7---7-7h9p7---------|
-|-10-10-------10---------10-10----------------10-10------10--------10-10----|
-|---------------------------------------------------------------------------|

----------|----|-|-|-|-||||||||||||||-|-|-|-||||-|-|-|-|-|-|-|-|-|-|-|-|-|--|
----------|----|-|-|-|-||||||||||||||-|-|-|-||||-|-|-|-|-|-|-|-|-|-|-|-|-|--|
----------|----|-|-|-|-||||||||||||||-|-|-|-||||-|-|-|-|-|-|-|-|-|-|-|-|-|--|
-7h9p7-5-7|----|-|-|-|-||||||||||||||-|-|-|-||||-|-|-|-|-|-|-|-|-|-|-|-|-|--|
-------3-5|----|-|-|-|-||||||||||||||-|-|-|-||||-|-|-|-|-|-|-|-|-|-|-|-|-|--|
----------|----|-|-|-|-||||||||||||||-|-|-|-||||-|-|-|-|-|-|-|-|-|-|-|-|-|--|
 G:1

-|---------------------------------------------------------------------------|
-|---------------------------------------------------------------------------|
-|---------------------------------------------------------------------------|
-|---------------------------------------------------------------------------|
-|---------------3-2--------------3--------------3-2-------------3-----------|
-|--0-3-5--0-3-5-----0-3-5--0-3-5---0-3-5--0-3-5-----0-3-5-0-3-5-------------|
 G:2

-|---------------------------------------------------------------------------|
-|---------------------------------------------------------------------------|
-|--------------5-4-------------5-------------5-4-------------5--------------|
-|----5-7---5-7-------5-7---5-7-----5-7---5-7-------5-7---5-7----------------|
-|--7-----7---------7-----7-------7-----7---------7-----7--------------------|
-|---------------------------------------------------------------------------|
 G:1

-|---------------------------------------------------------------------------|
-|---------------------------------------------------------------------------|
-|---------------------------------------------------------------------------|
-|---------------------------------------------------------------------------|
-|--2-2--2---5---2-2--8--7--2-5-5--2-2-2--5-2-2--8-7--2--5-------------------|
-|--0-0--0---3---0-0--6--5--0-3-3--0-0-0--3-0-0--6-5--0--3-------------------|
 G:2

-|----------------------------------------------------------------------|-|-|
-|----------------------------------------------------------------------|-|-|
-|----------------------------------------------------------------------|-|-|
-|-------5-----8-7---5-5--------5-----8-7----5--------------------------|-|-|
-|-7-7-7---7-7-----7------7-7-7---7-7------7----------------------------|-|-|
-|----------------------------------------------------------------------|-|-|
 G:1

-|---------------------------------------------------------------------------|
-|---------------------------------------------------------------------------|
-|---------------------------------------------------------------------------|
-|-2--2-2-2--2-2--0h4p0---------------------0h4p0h5p4------------------------|
-|-2--2-2-2--2-2--------3-----2--2-2-2--2-2-----------5----------------------|
-|-0--0-0-0--0-0-----------3--0--0-0-0--0-0----------------------------------|
 G:2

-|----------------------------------------------------------------------|-|-|
-|-----------------7--------------------------7---8-7-------------------|-|-|
-|-9--9-9-9--9-9-7---7--------9--9-9-9--9-9-7---7-----7--9--9-9-9--9-9--|-|-|
-|-9--9-9-9--9-9------10------9--9-9-9--9-9--------------9--9-9-9--9-9--|-|-|
-|-7--7-7-7--7-7---------10---7--7-7-7--7-7--------------7--7-7-7--7-7--|-|-|
-|----------------------------------------------------------------------|-|-|
 Verse Both Guitars

-|----------------------------------------------------------------------|-|-|
-|----------------------------------------------------------------------|-|-|
-|-4-4-4-4-4-4-4-5-5-4-4-4-4-4-4-4-4-5-5--------------------------------|-|-|
-|-2-2-2-2-2-2-2-2-2-2-2-2-2-2-2-2-2-2-2---5-5-5--7---4-----------------|-|-|
-|-2-2-2-2-2-2-2-2-2-2-2-2-2-2-2-2-2-2-2---3-3-3--5---2-----------------|-|-|
-|-0-0-0-0-0-0-0-0-0-0-0-0-0-0-0-0-0-0-0---3-3-3--5---2-----------------|-|-|
 G:1                         Interlude
-|-----------------------------------------------------------------------|-||
-|----------------------------------------8-6h8p6------6-----------------|-||
-|-5-----7------9------10-----9-----7-------------9-7-9--7---------------|-||
-|-----------------------------------------------------------------------|-||
-|---0-0----0-0----0-0----0-0---0-0---0-0--------------------------------|-||
-|-----------------------------------------------------------------------|-||
 G:2

-|-----------------------------------------------------------------------|-||
-|---------------------------------------5-3h5p3-------3-----------------|-||
-|-2------4------5-----7-----5-----4-------------5-4-5---4---------------|-||
-|-----------------------------------------------------------------------|-||
-|----0-0----0-0---0-0---0-0---0-0---0-0---------------------------------|-||
-|-----------------------------------------------------------------------|-||
 G:1                           Refr

-|--------------------------------------------------------------------------|
-|--------------------------------------------------------------------------|
-|-2-----2-----2-----2-----2-----2-----2------------------------------------|
-|-2-----2-----2-----2-----2-----2-----2--2-----2-----2-----2-----2-----2---|
-|-0-0-0-0-0-0-0-0-0-0-0-0-0-0-0-0-0-0-0--2-----2-----2-----2-----2-----2---|
-|----------------------------------------0-0-0-0-0-0-0-0-0-0-0-0-0-0-0-0---|
 G:2

-|-5p0-8p0-5p0-8p0-5p0-8p0-5p0-8p0--4p0-7p0-4p0-7p0-4p0-7p0-4p0-7p0---------|
-|--------------------------------------------------------------------------|
-|--------------------------------------------------------------------------|
-|--------------------------------------------------------------------------|
-|--------------------------------------------------------------------------|
-|--------------------------------------------------------------------------|
 G:2                           Interlude
-|--------------------------------------------------------------------------|
-|--------------------------------------------------------------------------|
-|---------------------------------------------------------9-7h9p7----------|
-|----------------------------------------------------------------10-9-7----|
-|-10h12-----12h14-----14h15-----12h14-----10h12-----12h14--------------10-9|
-|-------0-0-------0-0-------0-0-------0-0-------0-0------0-----------------|
 G:1
-|--------------------------------------------------------------------------|
-|--------------------------------------------------------------------------|
-|--------------------------------------------------------------------------|
-|---------------------------------------------------10-9h10p9--------------|
-|-7h9-----9h10-----10h12-----9h10-----7h9-----9h10------------12-10-9------|
-|-----0-0------0-0-------0-0------0-0-----0-0-----0-------------------12-10|
 G:1 Comp during the solo [Solo riff:1]

-|---------------------------------------------------------------------------|
-|---------------------------------------------------------------------------|
-|---------------------------------------------------------------------------|
-|-----9-----7-----9-----10-----7h9------10-----8-----10-----11-----8h10-----|
-|-7-7---7-7---7-7---7-7----7-7------8-8----8-8---8-8----8-8----8-8-------10-|
-|---------------------------------------------------------------------------|


------------------------------------------------------------------------------|
------------------------------------------------------------------------------|
---------------------------------------------------9-----7-----9-----10-----7-|
----12-------10-------12-------13-------10h12--7-7---7-7---7-7---7-7----7-7---|
-10----10-10----10-10----10-10----10-10---------------------------------------|
------------------------------------------------------------------------------|
         Solo riff:2

----|------------------------------------------------------------------------|
----|------------------------------------------------------------------------|
-h9-|------------------------------------------------------------------------|
----|2-2-2-2-2-2-2-2-2-2-2-2-2-2-5-5-5-5-5-5-5-5-5-5-5-5-5-5-----------------|
----|0-0-0-0-0-0-0-0-0-0-0-0-0-0-3-3-3-3-3-3-3-3-3-3-3-3-3-3-5-5-5-5-5-5-5-5-|
----|--------------------------------------------------------3-3-3-3-3-3-3-3-|

-----------------------------------------|----------------------------------|
-----------------------------------------|----------------------------------|
-----------------------------------------|----------------------------------|
-------------7-7-7-7-7-7-7-7-7-7-7-7-7-7-|----------------------------------|
-5-5-5-5-5-5-5-5-5-5-5-5-5-5-5-5-5-5-5-5-|----------------------------------|
-3-3-3-3-3-3-----------------------------|----------------------------------|
 Then Both Guitars Plays a bit of the Solo, Then plays solo riff2.
 G2: Solo continue:

-----------------------------------------------------------------------------|
--17t13p12-17t13p12-17t13p12-17t13p12-17t13p12-17t13p12-17t13p12-17t13p12----|
-----------------------------------------------------------------------------|
-----------------------------------------------------------------------------|
-----------------------------------------------------------------------------|
-----------------------------------------------------------------------------|

[ Tab from: http://www.guitartabs.cc/tabs/a/asteroidica/fear_nothing_tab.html ]
-----------------------------------------------------------------------------|
--18t13p10-18t13p10-18t13p10-18t13p10-18t13p10-18t13p10-18t13p10-18t13p10----|
-----------------------------------------------------------------------------|
-----------------------------------------------------------------------------|
-----------------------------------------------------------------------------|
-----------------------------------------------------------------------------|


-----------------------------------------------------------------------------|
--15t12p8-15t12p8-15t12p8-15t12p8-15t12p8-15t12p8-15t12p8-15t12p8-15t12p8----|
-----------------------------------------------------------------------------|
-----------------------------------------------------------------------------|
-----------------------------------------------------------------------------|
-----------------------------------------------------------------------------|


-----------------------------------------------------------------------------|
--17t13p10-17t13p10-17t13p10-17t13p10-17t13p10-17t13p10-17t13p10-17t13p10----|
-----------------------------------------------------------------------------|
-----------------------------------------------------------------------------|
-----------------------------------------------------------------------------|
-----------------------------------------------------------------------------|


---17b-17b-17b-17b-17b--17p15p12--17p15p12-17p15p17-17p15p12-17p15p12--------|
---20--20--20--20--20--------------------------------------------------------|
-----------------------------------------------------------------------------|
-----------------------------------------------------------------------------|
-----------------------------------------------------------------------------|
-----------------------------------------------------------------------------|


-17p15p12-17p15p12---17-17-17-17--15-13-12----13-12-------12-----------------|
-------------------------------------------15-------15-13----15-13-12--15-13-|
-----------------------------------------------------------------------------|
-----------------------------------------------------------------------------|
-----------------------------------------------------------------------------|
-----------------------------------------------------------------------------|

-----------------------------------------------------------------------------|
-12----13-12-----------------------------------------------------------------|
----14-------14-12--16-14-12----14-12-------12-------------------------------|
-----------------------------16-------16-14----16-14-12--16-14-12----14-12---|
------------------------------------------------------------------16------16-|
-----------------------------------------------------------------------------|
                                                      Both Guitars
---------------------------------------------|----------------------10-13-12|
---------------------------------------------|-----------------9-12---------|
---------------------------------------------|------------7-10--------------|
-----12--------------------------------------|--------6-9-------------------|
--14----16-14-12---16-14-12----14-12---------|----5-8-----------------------|
----------------------------16-------16-14-12|4-7---------------------------|


-----------------------------------------------------------------------------|
-13p12p10-13p12p10-13p12p10-13p12p10-13p12p10-13p12p10-13p12p10-13p12p10-----|
-----------------------------------------------------------------------------|
-----------------------------------------------------------------------------|
-----------------------------------------------------------------------------|
-----------------------------------------------------------------------------|


-----------------------------------------------------------------------------|
--15p13p12-15p13p12-15p13p12-15p13p12-15p13p12-15p13p12-15p13p12-15p13p12----|
-----------------------------------------------------------------------------|
-----------------------------------------------------------------------------|
-----------------------------------------------------------------------------|
-----------------------------------------------------------------------------|


-----------------------------------------------------------------------------|
--17p15p13-17p15p13-17p15p13-17p15p13-17p15p13-17p15p13-17p15p13-17p15p13----|
-----------------------------------------------------------------------------|
-----------------------------------------------------------------------------|
-----------------------------------------------------------------------------|
-----------------------------------------------------------------------------|


-----------------------------------------------------------------------------|
--19p15p17-19p15p17-19p17p15-19p17p15-19p17p15-19p17p15-19p17p15-19p17p15----|
-----------------------------------------------------------------------------|
-----------------------------------------------------------------------------|
-----------------------------------------------------------------------------|
-----------------------------------------------------------------------------|

--17b--17b--17b--17b--17b|---------------------------------------------------|
--20b--20b--20b--20b--20b|---------------------------------------------------|
-------------------------|---------------------------------------------------|
-------------------------|---------------------------------------------------|
-------------------------|---------------------------------------------------|
-------------------------|---------------------------------------------------|
 G:1                       Interlude

-|--------------------------------------------------------------------------|
-|-------------------------------------5-3h5p3-------3----------------------|
-|-2-----4-----5-----7-----5-----4-------------5-4-5---4----------------2x--|
-|--------------------------------------------------------------------------|
-|---0-0---0-0---0-0---0-0---0-0---0-0--------------------------------------|
-|--------------------------------------------------------------------------|
 G:2

-|--------------------------------------------------------------------------|
-|--------------------------------------8-6h8p6-------6---------------------|
-|-5-----7-----9-----10-----9-----7-------------9-7-9---7----------------2x-|
-|--------------------------------------------------------------------------|
-|---0-0---0-0---0-0----0-0---0-0---0-0-------------------------------------|
-|--------------------------------------------------------------------------|
 Both Guitars(Verse)

-|--------------------------------------------------------------------------|
-|--------------------------------------------------------------------------|
-|-4-4-4-4-5-5-5--4--4--44-5-5-5--5-44--5--------------------------------4x-|
-|-2-2-2-2-2-2-2--2--2--22-2-2-2--2-22--2----5-5-5---7--4-------------------|
-|-2-2-2-2-2-2-2--2--2--22-2-2-2--2-22--2----3-3-3---5--2-------------------|
-|-0-0-0-0-0-0-0--0--0--00-0-0-0--0-00--0----3-3-3---5--2-------------------|
 G:1                       Interlude
-|--------------------------------------------------------------------------|
-|--------------------------------------------------------------------------|
-|--------------------------------------------------------------------------|
-|-----------------------------------------------------10-9h10p9------------|
-|-7h9-----9h10-----10h12-----9h10-----7h9-----9h10-------------12-10-9-----|
-|-----0-0------0-0-------0-0------0-0-----0-0------0-0----------------12-10|
 G:2

-|--------------------------------------------------------------------------|
-|--------------------------------------------------------------------------|
-|---------------------------------------------------------9-7h9p7----------|
-|----------------------------------------------------------------10-9-7----|
-|-10h12-----12h14-----14h15-----12h14-----10h12---12h14----------------10-9|
-|-------0-0-------0-0-------0-0-------0-0------0-0-----0-0-----------------|
 G:1 Refr

-|--------------------------------------------------------------------------|
-|--------------------------------------------------------------------------|
-|-2-----2-----2-----2-----2-----2------------------------------------------|
-|-2-----2-----2-----2-----2-----2----2-----2-----2-----2-----2-----2-------|
-|-0-0-0-0-0-0-0-0-0-0-0-0-0-0-0-0----2-----2-----2-----2-----2-----2-------|
-|------------------------------------0-0-0-0-0-0-0-0-0-0-0-0-0-0-0-0-------|
 G:2

-|-5p0-8p0-5p0-8p0-5p0-8p0-5p0-8p0---4p0-7p0-4p0-7p0-4p0-7p0-4p0-7p0--------|
-|--------------------------------------------------------------------------|
-|--------------------------------------------------------------------------|
-|--------------------------------------------------------------------------|
-|--------------------------------------------------------------------------|
-|--------------------------------------------------------------------------|
 G:1

-|--------------------------------------------------------------------------|
-|--------------------------------------------------------------------------|
-|--------------------------------------------------------------------------|
-|--------------------------------------------------10-9h10p9---------------|
-|-7h9-----9h10-----10h12----9h10---7h9-----9h10--------------12-10-9-------|
-|-----0-0------0-0------0-0-----0-0----0-0-----0-0--------------------12-10|
 G:2

-|--------------------------------------------------------------------------|
-|--------------------------------------------------------------------------|
-|---------------------------------------------------------9-7h9p7----------|
-|----------------------------------------------------------------10-9-7----|
-|-10h12-----12h14-----14h15----12h14-----10h12----12h14----------------10-9|
-|-------0-0-------0-0------0-0-------0-0-------0-0-----0-0-----------------|
 Both Guitars(Outro)

-|---------------------------------------------------------------------------|
-|---------------------------------------------------------------------------|
-|---------------------------------------------------------------------------|
-|---------------------------------------------------------------------------|
-|--------------3-2--------------3---------------3-2-------------3-2---------|
-|-0-3-5--0-3-5------0-3-5-0-3-5----0-3-5--0-3-5-----0-3-5-0-3-5----5-3-2-3--|


---------------------------------------------------------------------------||
---------------------------------------------------------------------------||
---------------------------------------------------------------------------||
----------------------------------------2------------2---------------------||
-2-2-2-2-2---2-2-2-2--2-2-2-2-2-2-2-2-2-2vvvvvvvv----2---------------------||
-0-0-0-0-0---0-0-0-0--0-0-0-0-0-0-0-0-0-0vvvvvvvv----0---------------------||
Comments