Aslan - Crazy World Chords & Tabs

 

Crazy World Chords & Tabs

Aslan Chords & Tabs

Version: 1 Type: Tab 0 ratings
1 star 2 stars 3 stars 4 stars 5 stars
comments

Crazy World Tab

   
Song: Crazy World
Artist: Aslan
Tabbed by: Ronan Flynn 
Tuning: Standard 


Why is there no Aslan tabs on this site!? Or on the whole internet for that
matter! ...Here's the full song anyway, solo and all! 


This fill is used at various points in the song.

 (fill)
e|---14-14-14-14---12-12-12--10-10-10------------
B|-----------------------------------------------
G|-----------------------------------------------
D|-----------------------------------------------
A|-----------------------------------------------
E|-----------------------------------------------


Intro: D Em G D 



Chorus
-------
  D                            Em
How can I protect you in this crazy world
        G                 D     (fill)
It's alright, yeah, it's alright


Verse 1
--------
 D                    Em
I have fallen down so many times
G
Dunno why, Dunno where,
                              D
Don't care less its all the same
                               Em
I have travelled through so many towns
G
Dunno why, dunno where, 
                              D   (fill)
Don't care less its all the same


(Chorus)
 

Verse 2
--------   
D                          Em
Can you hear the sound of nothing, nothing
G
Nothing's right, nothing's wrong
                               D
Don't care less it's all the same
[ Tab from: http://www.guitartabs.cc/tabs/a/aslan/crazy_world_tab.html ]
Love is blind, love is real
                                    Em
Don't you know that life is what you feel
       G                    D   (fill)
Its alright, yeah, it's alright


(Chorus)


Bridge
------
G                  D     G                  D
When the talk is over, all the crowd have gone
 G           D          G
Nothing else I can do. Am I ever gonna get through to you?
            D
It's all right


Solo : D Em G D x2 


e|--------------------------------------------------------------------------------|
b|--------------------------------------------------------------------------------|
g|--9b11-9b11-9b11---9b11-9b11-9b11---9b11r9--7-----9b11r9--7-----9b11r9--7-------|
d|----------------------------------------------9--------------9--------------7---|
a|--------------------------------------------------------------------------------|
e|--------------------------------------------------------------------------------|

e|--------------------------------------------------------------------------------|
b|--------------------------------------------------------------------------------|
g|--9b11-9b11-9b11-9b11-9b11---9b11-9b11-9b11-9b11-9b11----9b11r9--7------9b11r9--|
d|--------------------------------------------------------------------9-----------|
a|--------------------------------------------------------------------------------|
e|--------------------------------------------------------------------------------|


e|-------------------------|
B|-------------------------|
G|-7-----9b11r9--7---------|
D|---9-------------7-------|
A|-------------------------|
E|-------------------------|


Repeat chorus x 3


Any questions or comments... email: mcflynn69@hotmail.com
Comments