Asian Dub Foundation - Naxalite Chords & Tabs

 

Naxalite Chords & Tabs

Asian Dub Foundation Chords & Tabs

Version: 2 Type: Bass Tab 0 ratings
1 star 2 stars 3 stars 4 stars 5 stars
comments

Naxalite Bass Tab

   
FTH80:GDAE ; Generated by Fast Tab, do not erase
====================
>From            : Rafi's revenge
Artist          : Asian Dub Foundation
Bass Performance: Dr Das
Comments:       : Great song from the rumble in the jungle Das
---
Strings: B,E,A,D
====================

Intro                                                                  
D--------------------------------------------------------------------------------
A--------------------------------------------------------------------------------
E--8--6--------------------------------------------------------------------------
B--------8--6--------------------------------------------------------------------
 

                                                                               
Main Riff    
D---------------------------------------------------------------------------
A----10--8-10----------------------------10--8-10---------------------------
E-------------10--------------6--6--r-------------10--------------6--6-----6
B--8--------------8--r--8--8-----------8--------------8--r--8--8--------8---

                                                                                   
               
D-----------------------------------------------------------------------------
A----10--8-10----------------------------10--8-10-----------------------------
E-------------10--------------6--6--r-------------10-----------8--------------
B--8--------------8--r--8--8-----------8--------------8--r--8-----------------
[ Tab from: http://www.guitartabs.cc/tabs/a/asian_dub_foundation/naxalite_btab_ver_2.html ]
                
solo
D-----8-10-12--r-12-10--8-------10--8-----------8---------
A-10----------------------10--r-------10--8--r----10--8---
E-------------------------------------------------------10
B---------------------------------------------------------                             

                                                    
                  
D--------------------------------------------------------------------------------
A--------------------------------------------------------------------------------
E-----6--8-10--r-10--8--6--------8--6-----------6--------------------------------
B--8-----------------------8--r--------8--6--r-----8--6--3-----------------------

                       
Riff 2
D------------------------------------------------------------------
A--------------------------1--r--------------------------------1---
E--3--3--1--3--3-----------------3--3--3--1--3--3--1--3--1--------1
B-----------------3--3--3-----------------------------------3------


Riff 3
D---------------------------------------------
A-----------------------------------1--1--1--1
E--3--3--3--1--3--3--3--1--3--1---------------
B--------------------------------3------------


Riff 4
D---------------------------------------------------------------------
A--------------------------------8--8-10-10-10-10--8------------------
E--------------6--8-10-10-10-10----------------------10--8--8--8--6---
B--8--8--8--8--------------------------------------------------------8


Outro
D-10--8-----------8------------------------
A-------10--8--r----10--8------------------
E-------------------------10--r-10--8--6---
B-----------------------------------------8
Comments