Asian Dub Foundation - 1000 Mirrors (w/ Sinead O'connor) Chords & Tabs

 

1000 Mirrors (w/ Sinead O'connor) Chords & Tabs

Asian Dub Foundation Chords & Tabs

Version: 1 Type: Tab 0 ratings
1 star 2 stars 3 stars 4 stars 5 stars
comments

1000 Mirrors (w/ Sinead O'connor) Tab

This is played throughout the song at various parts

E ----------4-----------------------------------------
B ----------5-----------------------------------------
G ----------6-----------------------------------------
D ----------6-----------------------------------------
A -------4--4------------------------------------------
E ---7------------------------------------------------

Intro

E ---------------------------------------------------
B ---------4-5-4-2-0-2h4--------4-5-4-2-0------------
G ------6--------------------6------------1----------
D ---6--------------------6--------------------------
A ---------------------------------------------------
E ---------------------------------------------------
[ Tab from: http://www.guitartabs.cc/tabs/a/asian_dub_foundation/1000_mirrors_w_sinead_oconnor_tab.html ]
E ---------------------4-4-4-2-0-5-5-4---------------
B ------4-5-4-2-0-2h4--------------------------------
G ----6----------------------------------------------
D --6------------------------------------------------
A ---------------------------------------------------
E ---------------------------------------------------

Chorus

E --2-3-4-5-1-5-4-3-1-2---2-1-0---0-0-2-0-0----------
B ----------------------4-------4-----------4-4-2-4--
G ---------------------------------------------------
D ---------------------------------------------------
A ---------------------------------------------------
E ---------------------------------------------------

E ---2-3-4-5-1-5-4-3-1-2---2-1-0---0-0-2-0-0---4-2-4-
B -----------------------4-------4-----------4-------
G ---------------------------------------------------
D ---------------------------------------------------
A ---------------------------------------------------
E ---------------------------------------------------
Comments