Ashlee Simpson - Undiscovered Chords & Tabs

 

Undiscovered Chords & Tabs

Ashlee Simpson Chords & Tabs

Version: 1 Type: Tab 0 ratings
1 star 2 stars 3 stars 4 stars 5 stars
comments

Undiscovered Tab

   
"Undiscovered"
Ashlee Simspon

/ = SLIDE TO QUICKLY
* = DON'T PLAY 'CAUSE OF SLIDING
~ = TO STRUM THE NOTE! NOT PICK!! SQUIRELLS ROCK! AND SO DO TACOS!!!

Intro:  PALY THROUGH VERSE 1

Fill 1                                                   End fill 1

E--------------------------------------------------------------------|
B--------------------------------------------------------------------|
G--------------------------------------------------------------------|
D--------------------------------------------------------------------|
A--2-/-4*-4-4---4-4-4--2-/-4*-4-4-4---4-4-4--4-/-5*-5-5---5-5-5------|
E--------------------------------------------------------------------|

CHORUS:

A5 ~~~~~~~~~~~~~~~~~E5~~~~~~~~~~
SO MANY THINGS LEFT UNDISVOERED,

F#5~~~~~~~~~~D5~~~~~~~~~~~~~
MANY THINGS LEFT TO WONDER,

B5~~~~~D5~~~~~~~~B5~~~~~D5~~~~~~
I NEED YOU . . . YEAH I NEED YOU

A5 ~~~~~~~~~~~~~~~~~E5~~~~~~~~~~
SO MANY THINGS LEFT UNDISVOERED,

F#5~~~~~~~~~~D5~~~~~~~~~~~~~
MANY THINGS LEFT TO WONDER,

       B5~~~~~D5~~~~~~~~B5~~~~~D5~~~~~~
    (   I NEED YOU . . . YEAH I NEED YOU   ) DON'T PLAY ON CHORUS 2

       D5~~~~~~~~~~~~~~~~~~~~~~~~~~~~
                      DON'T WALK AWAY


fill in 1 x 2

(verse 2 with fill in 1 to:
[ Tab from: http://www.guitartabs.cc/tabs/a/ashlee_simpson/undiscovered_tab.html ]
chrous)

Brigde

CHORD FILL 2   END CHORD FILL 2

F#5 . . . E5 . . . A5 . . . B5

And i can't wait . . . (YOU KNOW THE REST) FOR EVERYLINE IS A DIFFERNT CHORD!)

(CHORUS) FOR THE CHORUS YOU CAN MAKE THE CHORDS DIFFERNT BY CHANGING--IF YOU WANT TO!!!!!

  A5   E5   F#5   D5   B5
 (A)+  (E)  (F#)  (D5)  (BM)

+ = CHORDS IN PARENTHASIS ARE THE CHORDS YOU CAN CHANGE IN CHORUS!!TACO!!

BRIDGE WITH CHORD FILL IN 2 AND CHORUS CHORDS.


E--------------------------------------------------------------------|
B--------------------------------------------------------------------|
G--------------------------------------------------------------------|
D--------------------------------------------------------------------|
A--2-/-4*-4-4---4-4-4--2-/-4*-4-4-4---4-4-4--4-/-5*-5-5---5-5-5------|
E--------------------------------------------------------------------|

E--------------------------------------------------------------------|
B--------------------------------------------------------------------|
G--------------------------------------------------7-----------------|
D--------------------------------------------------7-----------------|
A--2-/-4*-4-4---4-4-4--2-/-4*-4-4-4---4-4-4--4-/---5-----------------|
E--------------------------------------------------------------------|

--END
Comments