Ashlee Simpson - Sorry Chords & Tabs

 

Sorry Chords & Tabs

Ashlee Simpson Chords & Tabs

Version: 1 Type: Tab

Sorry Tab

not sure if its right but its my first tab so yeah
[ Tab from: http://www.guitartabs.cc/tabs/a/ashlee_simpson/sorry_tab.html ]
Intro:
e--------------------------------------------------------|
b--------------------------------------------------------|
g--------------------------------------------------------|
d------0-----0----0--------0-----0----0------------------|
a----4-----4-------------4-----4-------------------------|
E--5-----5------5------5-----5------5--------------------|

e--------------------------------------------------------|
b--------------------------------------------------------|
g--------------------------------------------------------|
d------0-----0----0---------4-4-----4-4-----4------------|
a----5-----5--------------5-------5-------5--------------|
E--3-----3------3----------------------------------------|