Ashlee Simpson - Shadow Chords & Tabs

 

Shadow Chords & Tabs

Ashlee Simpson Chords & Tabs

Version: 2 Type: Tab 0 ratings
1 star 2 stars 3 stars 4 stars 5 stars
comments

Shadow Tab

   
Shadows
Ashlee Simpson
Autobiography

-------------------------------------------------------------------------------------------
Ey, I've just added here the guitar plucking of the verses and the outro after the last
chorus and the ending. The chords are just the same as the other version but I've made
some few corrections. I guess this should do it.
It sounds good like in the song. Thanks to the others who contributed the chords for
this song. Well here is the tab. Please rate nalang para marami ang kumuha. Tnx.
-------------------------------------------------------------------------------------------
Tabbed by: Christian Co

Tuning: Standard

Chords:
   G     G7    C     A7    D9    Am    F
e--3--|--3--|--0--|--0--|--0--|--0--|--1--|
b--0--|--0--|--1--|--0--|--3--|--1--|--1--|
g--0--|--0--|--0--|--2--|--2--|--2--|--2--|
d--0--|--3--|--2--|--0--|--0--|--2--|--3--|
a--2--|--2--|--3--|--0--|--x--|--0--|--3--|
E--3--|--3--|--x--|--3--|--x--|--x--|--1--|

Intro:
           G  			  G
e---------------------------------------------|
b--------0---0---0h1-0--------0---0---0h1-0---|
g------0---0---0------------0---0---0---------|
d---------------------------------------------|
a---------------------------------------------|
E----3--------------------3-------------------|


Verse: Do these twice
           G  			  G7
e---------------------------------------------|
b--------0---0---0h1-0--------0---0---0h1-0---|
g------0---0---0----------------0---0---------|
d---------------------------3-----------------|
a---------------------------------------------|
E----3--------------------3-------------------|

           C  			  D/G
e---------------------------------------------|
b--------1---1---1----------------------------|
g------0---0---0---0----------2---2---2h3-2---| 
d---------------------------0---0---0---------|
a----3----------------------------------------|
E-------------------------3-------------------|

Verse 1:
  G
I was six years old
G7
When my parents went away
C                        A7
I was stuck inside a broken life

I couldn't wish away
     G
She was beautiful
G7                      C
She had everything and more
                   A7                             
And my escape was hiding out and running for the door

Refrain:
C                 D9
Somebody listen please
C                           D9
It used to be so hard being me

Chorus:
               G
Living in the shadow
                  G7
Of someone else's dream
                  C                                         F
Trying to find a hand to hold but every touch felt cold to me
              G
Living in a nightmare
                G7
A never-ending sleep
                       C
But now that I am wide awake
                       F
My chains are finally free
                     G
Don't feel sorry for me

Verse 2: Do these twice
           G  			  G7
e---------------------------------------------|
b--------0---0---0h1-0--------0---0---0h1-0---|
g------0---0---0----------------0---0---------|
d---------------------------3-----------------|
a---------------------------------------------|
E----3--------------------3-------------------|
[ Tab from: http://www.guitartabs.cc/tabs/a/ashlee_simpson/shadow_tab_ver_2.html ]
           C  			  D/G
e---------------------------------------------|
b--------1---1---1----------------------------|
g------0---0---0---0----------2---2---2h3-2---| 
d---------------------------0---0---0---------|
a----3----------------------------------------|
E-------------------------3-------------------|
 
G
All the days collided
G7
One less perfect than the next
C                   A7                                      G
I was stuck inside someone else's life and always second best
                    G7                C
Oh, I love you now 'cause now I realize
                             A7             
That it's safe outside to come alive in my identity

Refrain:
C                D9
So if you're listening
C                                D9
There's so much more to me you haven't seen

Chorus:
               G
Living in the shadow
                  G7
Of someone else's dream
                  C                                         F
Trying to find a hand to hold but every touch felt cold to me
              G
Living in a nightmare
                G7
A never-ending sleep
                       C
But now that I am wide awake
                       F
My chains are finally free
                     
Don't feel sorry for me

Bridge:
Am                                  F
Mother, sister, father, sister, mother

Everything's cool now
Am                                  F
Mother, sister, father, sister, mother

Everything's cool now
D9             F
Oh, my life is good
                            D9
I've got more than anyone should
                  F
Oh, my life is good
                       G    G
And the past is in the past

Chorus:
               G
I was living in the shadow
                   G7
Of someone else's dream
                  C                                         F
Trying to find a hand to hold but every touch felt cold to me
                   G
I'm living in a new day
                  G7
I'm living it for me
                        C
And now that I am wide awake
                   F
Then I can finally be
                   G
Don't feel sorry for me

Outro:
e----------------------------------------------|
b-------------8------------8s10---10s12-8------|
g----------7------------7----------------------|
d---9--10--------9--10-------------------------|
a----------------------------------------------|
E----------------------------------------------|

Continuation
e--------------------------------|
b--------------------------------|
g--------------------------------| (2x)
d---9h10-9-7------7-9-7--9-7-5---|
a------------10------------------|
E--------------------------------|

G7                                      C        
Don't feel sorry, don't feel sorry for me
F                                         G G7 C F
Don't feel sorry, don't feel sorry for me

G                                       G7
Living in, living in, living in the shadow
C                            A7           G 
Living in, living in, living in a new day

Ending:

e-----------------3-|
b---------0----1----|
g------0-----2------|
d-------------------|
a-------------------|
E---3---------------|.

-------------------------------------------------------------------------------------------
For comments, suggestions or what you want to say:
E-mail me at: ravenchristian2003@yahoo.com
Comments