Ashlee Simpson - Pieces Of Me Chords & Tabs

 

Pieces Of Me Chords & Tabs

Ashlee Simpson Chords & Tabs

Version: 1 Type: Bass Tab 0 ratings
1 star 2 stars 3 stars 4 stars 5 stars
comments

Pieces Of Me Bass Tab

Tabbed By: Craig Murphy
Email: Craig.murphy@blueyonder.co.uk
Artist: Ashlee Simpson
Title: Pieces Of Me

Key: ~ Let Note Ring

Intro

Theres no bass in the intro of first part of the verse the bass comes in at 0:16 with the lyrics
"When the phone rings..."

G -----------------------------------------------------|
D -----------------------------------------------------|
A ---------------7-7--7--7-7---------------0-0--0--0-0-|
E --7-7--7--7-7---------------3-3--3--3-3--------------|


Pre-Chorus
"Fall With You..."

G -----------------------------------|
D -----------------------------------|
A -2-2-2-2-2-2-2-2-------------------|
E -----------------3-3-3-3-3-3-3-3---|

"I Can Hardly..."
G -----------------------------------|
D -----------------------------------|
A -2-2-2-2-2-2-2-2--3-3-3-3----------|
E --------------------------3-3-3-3--|

Chorus
"OHHHH It Seems Like..."

The tens (10) Sound better then open D
[ Tab from: http://www.guitartabs.cc/tabs/a/ashlee_simpson/pieces_of_me_btab.html ]
G ---------------------------------------|
D -0-0-0-0-------------------------------|
A -------------------------------0-0-0-0-|
E (10-10-10-10)-3-3-3-3--0-0-0-0---------|

G -----------------------------------------|
D -0-0-0-0---------------------------------|
A --------------------------------0-0-0-0--|
E (10-10-10-10)-3-3-3-3--0-0-0-0-----------| x2


Theres a small part after the chorus and before the verse where the bass just plays

G ---------------------------------------|
D ---------------------------------------|
A ---------------------------------------|
E -10~-------101010101010101010101010----|

Bridge
"How Do You Know"

G -------------------------------------------|
D -0-0-0-0-0-0-0-0---------------------------|
A -------------------------------------------|
E (10-10-10-10-10-10-10-10)--3-3-3-3-3-3-3-3-| x2

G -----------------------------------|
D -----------------------------------|
A -------------------0~--------------|
E -0-0-0-0--2-2-2-2------------------|

End
G ----------------------------------|
D ----------------------------------|
A ----------------------------------|
E -3~-------------------------------|

Any corrections/errors please email me craig.murphy@blueyonder.co.uk
Comments