Ashlee Simpson - Lala Chords & Tabs

 

Lala Chords & Tabs

Ashlee Simpson Chords & Tabs

Version: 3 Type: Bass Tab 0 ratings
1 star 2 stars 3 stars 4 stars 5 stars
comments

Lala Bass Tab

Artist:     Ashlee Simpson
Song:       Lala
Tabbed by:  Toowmas (www.toowmas.tk)

Intro                          3x
G|------------------------------|
D|------------020---------------|
A|-2-2-2-2-2-2----2-2-2-2-2-2-2-|
E|------------------------------|

Pre-Chorus
G|---------------------------------|
D|---------------------------------|
A|-7777777777777777----------------|
E|-----------------33333333333333--|

Chorus                                2x   Chorus Outro
G|-------------------------------------|   G|----------|
D|---------------4-----------02222420--|   D|----------|
A|-22222224-55555-54-------------------|   A|-2-2-2-2--|
E|-------------------75555555----------|   E|----------|

Verse                          3x
G|------------------------------|
D|------------020---------------|
A|-2-2-2-2-2-2----2-2-2-2-2-2-2-|
E|------------------------------|
[ Tab from: http://www.guitartabs.cc/tabs/a/ashlee_simpson/lala_btab_ver_3.html ]
Pre-Chorus                             Chorus                                4x
G|---------------------------------|   G|-------------------------------------|
D|---------------------------------|   D|---------------4-----------02222420--|
A|-7777777777777777----------------|   A|-22222224-55555-54-------------------|
E|-----------------33333333333333--|   E|-------------------75555555----------|

Bridge                                 4x
G|--------------------------------------|
D|--------------------------------------|
A|-22222222-44444444-66666666-77777777--|
E|--------------------------------------|

Verse                          3x
G|------------------------------|
D|------------020---------------|
A|-2-2-2-2-2-2----2-2-2-2-2-2-2-|
E|------------------------------|

Chorus                                4x
G|-------------------------------------|
D|---------------4-----------02222420--|
A|-22222224-55555-54-------------------|
E|-------------------75555555----------|

Bridge                                 4x
G|--------------------------------------|
D|--------------------------------------|
A|-22222222-44444444-66666666-77777777--|
E|--------------------------------------|
Comments