Ashanti - Southside Chords & Tabs

 

Southside Chords & Tabs

Ashanti Chords & Tabs

Version: 1 Type: Tab 0 ratings
1 star 2 stars 3 stars 4 stars 5 stars
comments

Southside Tab

southside

Lloyd and Ashanti


this continues through out the whole song
e-------------------------------------------------8--------7-5--7/87535--|
B----------10----------8-6---5h6p5h6--------------10-------8-6-----------|
G----------9-----------7-5------------------------9--------7-5-----------|
D------10--10-------9--9-7--------------------10--------9----7-----------|
A---8------------7-------5-----------------8---------7-------------------|
E------------------------------------------------------------------------|


chorus:
[ Tab from: http://www.guitartabs.cc/tabs/a/ashanti/southside_tab.html ]
repeat the same tab on top and another guitarist plays this at the same time
this is also the solo guitar:
e---------------------x3--------------------------------------|
B-------------------------------------------------------------|
G-----4--5--7--6h7--5------5h7--7h9--6h7----4--5--7--6h7--5---|
D---5-------------------------------------5---------------5---|
A-------------------------------------------------------------|
E-------------------------------------------------------------|

e--------------------------------|
B--------------------------------|
G---9h10-9--7--4--5--------------|
D-------------------5------------|
A--------------------------------|
E--------------------------------|


have fun yall !!!
eat siopao
by: stef d guapo
Comments