Ashanti - Only You Chords & Tabs

 

Only You Chords & Tabs

Ashanti Chords & Tabs

Version: 1 Type: Tab 0 ratings
1 star 2 stars 3 stars 4 stars 5 stars
comments

Only You Tab

This is the guitar part thats play throughout the song. Use HEAVY distortion to
replicate the sound on the cd.
[ Tab from: http://www.guitartabs.cc/tabs/a/ashanti/only_you_tab.html ]
E|-----------------------------------|
B|-----------------------------------|
G|-----------------------------------|
D|-----------------------------------|
A|----11---------------9--12--9--12--|
E|-9--------9--11--12----------------|

E|-----------------------------------|
B|-----------------------------------|
G|-----------------------------------|
D|-----------------------------------|
A|----11---------------9--12--9--11--|
E|-9--------9--11--12----------------|
Comments