Ashanti - Foolish Chords & Tabs

 

Foolish Chords & Tabs

Ashanti Chords & Tabs

Version: 1 Type: Tab 0 ratings
1 star 2 stars 3 stars 4 stars 5 stars
comments

Foolish Tab

I think this is a new artist, I couldn't find her, so...

Artist Information
Name: Ashanti (Douglas... Mainly called Ashanti)
Album (1st and only) Self-titled
Main Singles: Foolish, Mesmerized (with Ja Rule), What's Luv (with Fat Joe)
Home Page: http://www.defjam.com/murderinc/ashanti/
United States
5 Grammy Nominations

Note to UG Staff: The main idea for the song is very repetitive, and that is what
I am submitting. Please don't reject it because it is so short.

TABS:

Here are the tabs for the main idea of "Foolish". 
[ Tab from: http://www.guitartabs.cc/tabs/a/ashanti/foolish_tab.html ]
HIGH E:--------------------------------------------
------1--0-----0---1-------------------------------
------------2---------2-------1---0-----0---1------
------2------------------------------3----------3--
------------------------------2--------------------
LOW E:---------------------------------------------


But, if you want to add the bass, you can play it like this:

HIGH E:--------------------------------------------
-------1---0-----0--1------------------------------
--------------2--------2-------1---0-----0---1-----
-------2------------------------------3---------3--
-------------------------------2-------------------
LOW E:-0---------3-----5-------0---------1------2--

Well, that is basically it. There isn't any other stuff in the song.just repeat
througout the whole song, but be careful about the rests and timings. It is a
cool song, enjoy!  If you have any questions or corrections
Comments