Ash - World Domination Chords & Tabs

 

World Domination Chords & Tabs

Ash Chords & Tabs

Version: 2 Type: Tab 0 ratings
1 star 2 stars 3 stars 4 stars 5 stars
comments

World Domination Tab

e-mail me with any complaints or you could also download msn messenger use this adress
allenscool@hotmail.co.uk listen to the track and develop this if yo think you can do better
e---------------------------------------|
b---------------------------------------|
g---------------------------------------|
d-------10-10---------------------------|
a-10-10--8--8-10-10-10-10-10-10---------|
e--8--8--------8--8--8--8--8--8-8-h9-10-|

e---------------------------------------|
b---------------------------------------|
g---------------------------------------|
d--------7--7---------------------------|
a--7--7--5--5--7--7--7--7--7--7---------|
e--5--5--------5--5--5--5--5--5-5-h6--7-|
[ Tab from: http://www.guitartabs.cc/tabs/a/ash/world_domination_tab_ver_2.html ]
Comments