Ash - World Domination Chords & Tabs

 

World Domination Chords & Tabs

Ash Chords & Tabs

Version: 1 Type: Tab 0 ratings
1 star 2 stars 3 stars 4 stars 5 stars
comments

World Domination Tab

WORLD DOMINATION BY ASH

TABBED BY RUAIRI COLEMAN

This is all i could work out. This is all played by Tim (Guitar 1). Theres a second
guitar that does some Bends and Slide on the chorus that i dont know.

Intro/Verus 1 (Guitar 1 & 2)
e|----7--7--7--X--7--7--7--7-------------5--5--5--X--5--5--5--5-------------|
B|----7--7--7--X--8--8--8--7-------------5--5--5--X--7--7--7--5-------------|
G|----8--8--8--X--8--8--8--8-------------6--6--6--X--7--7--7--6-------------|
D|----9--9--9--X--8--8--8--9-------------7--7--7--X--7--7--7--7-------------|
A|----9--9--9--X--7--7--7--9------7h9----7--7--7--X--5--5--5--7------5h7----|
E|----7--7--7--X--7--7--7--7-7h9---------5--5--5--X--5--5--5--5-5h7---------|
           Play X4
Gimme Gimme world domination             We are the new sensation
Calling to the whole population          So spread the word across the nation
we're gonna bring you heart palpitation  Gonna give you excitations
I am a god-like constellation            Gimme Gimme world domination

Chorus (Guitar 1 & 2)

e|------------------------------------------------------------------|
B|------------------------------------------------------------------|
G|--4---4---4---4---4---4/6--6--6--6---4--4--4--4--4--4/6--6--6--6--|
D|--5---5---5---5---5---5/7--7--7--7---5--5--5--5--5--5/7--7--7--7--|
A|--5---5---5---5---5---5/7--7--7--7---5--5--5--5--5--5/7--7--7--7--|
E|--3---3---3---3---3---3/5--5--5--5---3--3--3--3--3--3/5--5--5--5--|
Were here to speak our minds	     Won't take up much of your time
[ Tab from: http://www.guitartabs.cc/tabs/a/ash/world_domination_tab.html ]
(At this point guitar 2 brakes away an does some bends & slides)
e|-------------------------------------------------7--7--7--x-7--7-----|
B|-------------------------------------------------7--7--7--x-8--8-----|
G|---4--4--4--4--4--4--4--4/6--6--6--6--6--6--6--6/8--8--8--x-8--8-----|
D|---5--5--5--5--5--5--5--5/7--7--7--7--7--7--7--7/9--9--9--x-8--8-----|
A|---5--5--5--5--5--5--5--5/7--7--7--7--7--7--7--7/9--9--9--x-7--7-----|
E|---3--3--3--3--3--3--3--3/5--5--5--5--5--5--5--5/7--7--7--x-7--7-----|
     We    want     it      and      want    it    NOW!__
						  |NOW!|at the is point both
							Guitars jump
							staight into
                                                        the intro/verus again

Verus 2
e|----7--7--7--X--7--7--7--7-------------5--5--5--X--5--5--5--5-------------|
B|----7--7--7--X--8--8--8--7-------------5--5--5--X--7--7--7--5-------------|
G|----8--8--8--X--8--8--8--8-------------6--6--6--X--7--7--7--6-------------|
D|----9--9--9--X--8--8--8--9-------------7--7--7--X--7--7--7--7-------------|
A|----9--9--9--X--7--7--7--9------7h9----7--7--7--X--5--5--5--7------5h7----|
E|----7--7--7--X--7--7--7--7-7h9---------5--5--5--X--5--5--5--5-5h7---------|	      Play X4
Gimme Gimme world domination	       you're gonna feel our sonic vibrations
Our universal mind liberation		 is calling out to your situation
there will be no discrimination		 we're gonna wrap your imagination
cause you've been under sedation	 Gimme gimme world domination

Chorus
e|------------------------------------------------------------------|
B|------------------------------------------------------------------|
G|--4---4---4---4---4---4/6--6--6--6---4--4--4--4--4--4/6--6--6--6--|
D|--5---5---5---5---5---5/7--7--7--7---5--5--5--5--5--5/7--7--7--7--|
A|--5---5---5---5---5---5/7--7--7--7---5--5--5--5--5--5/7--7--7--7--|
E|--3---3---3---3---3---3/5--5--5--5---3--3--3--3--3--3/5--5--5--5--|
Were here to speak our minds	     Won't take up much of your time

(At this point guitar 2 brakes away an does some bends & slides)
e|-------------------------------------------------7--7--7--x-7--7-----|
B|-------------------------------------------------7--7--7--x-8--8-----|
G|---4--4--4--4--4--4--4--4/6--6--6--6--6--6--6--6/8--8--8--x-8--8-----|
D|---5--5--5--5--5--5--5--5/7--7--7--7--7--7--7--7/9--9--9--x-8--8-----|
A|---5--5--5--5--5--5--5--5/7--7--7--7--7--7--7--7/9--9--9--x-7--7-----|
E|---3--3--3--3--3--3--3--3/5--5--5--5--5--5--5--5/7--7--7--x-7--7-----|
    We want it and want it  We want it and want it NOW!__
						  |NOW!|at the is point both
							Guitars jump
							staight into
                                                        the intro/verus again

Sorry dont no the solo but il try and work it out soon. Enjoy the tab its my
first so please rate it :)
Comments