Ash - Who You Driven Now Chords & Tabs

 

Who You Driven Now Chords & Tabs

Ash Chords & Tabs

Version: 1 Type: Tab 0 ratings
1 star 2 stars 3 stars 4 stars 5 stars
comments

Who You Driven Now Tab

WHO YOU DRIVEN' NOW BY ASH

TABBED BY RUAIRI COLEMAN

 Legends
   / = Slide up the neck
   \ = Slide down the neck

 Intro
 e|-------------------------------------------------------------|
 B|-------------------------------------------------------------|
 G|-------------------------------------------------------------|
 D|---2---5/7-7-7---5/7-7-7\5-----2---5/7-7-7---5/7-7-7\5-------|
 A|---2---5/7-7-7---5/7-7-7\5-----2---5/7-7-7---5/7-7-7\5-------|
 E|---0---3/5-5-5---3/5-5-5\3-----0---3/5-5-5---3/5-5-5\3-------|
	Play X4

 Bridge
 e|-------------------------------------------|
 B|-------------------------------------------|
 G|-------------------------------------------|
 D|---9-9-9-9-9-9-9-9-9-9-9-9-9---------------|
 A|---9-9-9-9-9-9-9-9-9-9-9-9-9---------------|
 E|---7-7-7-7-7-7-7-7-7-7-7-7-7---------------|
      Hey hey hey hey hey girl 

 Verus
 e|-------------------------------------------------------------|
 B|-------------------------------------------------------------|
 G|-------------------------------------------------------------|
 D|---2---5/7-7-7---5/7-7-7\5-----2---5/7-7-7---5/7-7-7\5-------|
 A|---2---5/7-7-7---5/7-7-7\5-----2---5/7-7-7---5/7-7-7\5-------|
 E|---0---3/5-5-5---3/5-5-5\3-----0---3/5-5-5---3/5-5-5\3-------|
      Watch what you're doing     The way you keep running around 

 e|-------------------------------------------------------------|
 B|-------------------------------------------------------------|
 G|-------------------------------------------------------------|
 D|---2---5/7-7-7---5/7-7-7\5-----4---7/9-9-9---7/9-9-9\7-------|
 A|---2---5/7-7-7---5/7-7-7\5-----4---7/9-9-9---7/9-9-9\7-------|
 E|---0---3/5-5-5---3/5-5-5\3-----2---5/7-7-7---5/7-7-7\5-------|
      Gonna be a ruined           Driving reckless in your pinto

 e|-------------------------------------------------------------|
 B|-------------------------------------------------------------|
 G|-------------------------------------------------------------|
 D|---4---7/9-9-9---7/9-9-9\7-----2---5/7-7-7---5/7-7-7\5-------|
 A|---4---7/9-9-9---7/9-9-9\7-----2---5/7-7-7---5/7-7-7\5-------|
 E|---2---5/7-7-7---5/7-7-7\5-----0---3/5-5-5---3/5-5-5\3-------|
      Full tank of gas            When you kick me around, girl

 e|-------------------------------------------------------------|
 B|-------------------------------------------------------------|
 G|-------------------------------------------------------------|
 D|---2---5/7-7-7---5/7-7-7\5--/--9-9-9-9-9-9-9-9---------------|
 A|---2---5/7-7-7---5/7-7-7\5--/--9-9-9-9-9-9-9-9---------------|
 E|---0---3/5-5-5---3/5-5-5\3--/--7-7-7-7-7-7-7-7---------------|
      Gonna be one hell of a crash 
 
 Chorus
 e|-------------------------------------------------------------|
 B|-------------------------------------------------------------|
 G|---9-9-9-9-9-9-9-9-9-9-9---5-5-5-5-5-2-2-2-2-2---------------|
 D|---9-9-9-9-9-9-9-9-9-9-9---5-5-5-5-5-2-2-2-2-2----2----------|
 A|---7-7-7-7-7-7-7-7-7-7-7---3-3-3-3-3-0-0-0-0-0----2----------|
 E|--------------------------------------------------0----------|
     Hey hey hey hey hey hey   Who you drivin'      NOW!
						   |---| at this point
                                                   jump back in to intro

 e|-------------------------------------------------------------|
 B|-------------------------------------------------------------|
 G|-------------------------------------------------------------|
 D|---2---5/7-7-7---5/7-7-7\5-----2---5/7-7-7---5/7-7-7\5-------|
 A|---2---5/7-7-7---5/7-7-7\5-----2---5/7-7-7---5/7-7-7\5-------|
 E|---0---3/5-5-5---3/5-5-5\3-----0---3/5-5-5---3/5-5-5\3-------|
	Play X4

 Bridge
 e|-------------------------------------------|
 B|-------------------------------------------|
 G|-------------------------------------------|
 D|---9-9-9-9-9-9-9-9-9-9-9-9-9---------------|
 A|---9-9-9-9-9-9-9-9-9-9-9-9-9---------------|
 E|---7-7-7-7-7-7-7-7-7-7-7-7-7---------------|
      Hey hey hey hey hey girl 
[ Tab from: http://www.guitartabs.cc/tabs/a/ash/who_you_driven_now_tab.html ]
 Verus
 e|-------------------------------------------------------------|
 B|-------------------------------------------------------------|
 G|-------------------------------------------------------------|
 D|---2---5/7-7-7---5/7-7-7\5-----2---5/7-7-7---5/7-7-7\5-------|
 A|---2---5/7-7-7---5/7-7-7\5-----2---5/7-7-7---5/7-7-7\5-------|
 E|---0---3/5-5-5---3/5-5-5\3-----0---3/5-5-5---3/5-5-5\3-------|
  Wrap him around your finger     All the cars follow you 

 e|-------------------------------------------------------------|
 B|-------------------------------------------------------------|
 G|-------------------------------------------------------------|
 D|---2---5/7-7-7---5/7-7-7\5-----4---7/9-9-9---7/9-9-9\7-------|
 A|---2---5/7-7-7---5/7-7-7\5-----4---7/9-9-9---7/9-9-9\7-------|
 E|---0---3/5-5-5---3/5-5-5\3-----2---5/7-7-7---5/7-7-7\5-------|
But you don't have to see her     You're drivin' my t-bird 

 e|-------------------------------------------------------------|
 B|-------------------------------------------------------------|
 G|-------------------------------------------------------------|
 D|---4---7/9-9-9---7/9-9-9\7-----2---5/7-7-7---5/7-7-7\5-------|
 A|---4---7/9-9-9---7/9-9-9\7-----2---5/7-7-7---5/7-7-7\5-------|
 E|---2---5/7-7-7---5/7-7-7\5-----0---3/5-5-5---3/5-5-5\3-------|
    But the gauge is on empty     You're going nowhere fast

 e|-------------------------------------------------------------|
 B|-------------------------------------------------------------|
 G|-------------------------------------------------------------|
 D|---2---5/7-7-7---5/7-7-7\5--/--9-9-9-9-9-9-9-9---------------|
 A|---2---5/7-7-7---5/7-7-7\5--/--9-9-9-9-9-9-9-9---------------|
 E|---0---3/5-5-5---3/5-5-5\3--/--7-7-7-7-7-7-7-7---------------|
      You got no fuel left______________
 
 Chorus
 e|-------------------------------------------------------------|
 B|-------------------------------------------------------------|
 G|---9-9-9-9-9-9-9-9-9-9-9---5-5-5-5-5-2-2-2-2-2---------------|
 D|---9-9-9-9-9-9-9-9-9-9-9---5-5-5-5-5-2-2-2-2-2---------------|
 A|---7-7-7-7-7-7-7-7-7-7-7---3-3-3-3-3-0-0-0-0-0---------------|
 E|-------------------------------------------------------------|
     Hey hey hey hey hey hey   Who you drivin'      
     Hey hey hey hey hey hey   Who you drivin'     
     Hey hey hey hey hey hey   Who you drivin'     

 e|-------------------------------------------------------------|
 B|-------------------------------------------------------------|
 G|---9-9-9-9-9-9-9-9-9-9-9---5-5-5-5-5-2-2-2-2-2---------------|
 D|---9-9-9-9-9-9-9-9-9-9-9---5-5-5-5-5-2-2-2-2-2----2----------|
 A|---7-7-7-7-7-7-7-7-7-7-7---3-3-3-3-3-0-0-0-0-0----2----------|
 E|--------------------------------------------------0----------|
     Hey hey hey hey hey hey   Who you drivin'      NOW!
						   |---| at this point
                                                   jump back in to intro

 e|-------------------------------------------------------------|
 B|-------------------------------------------------------------|
 G|-------------------------------------------------------------|
 D|---2---5/7-7-7---5/7-7-7\5-----2---5/7-7-7---5/7-7-7\5-------|
 A|---2---5/7-7-7---5/7-7-7\5-----2---5/7-7-7---5/7-7-7\5-------|
 E|---0---3/5-5-5---3/5-5-5\3-----0---3/5-5-5---3/5-5-5\3-------|
				 NOW!
 Finish with this
 e|-----------------------------------------|
 B|-----------------------------------------|
 G|-----------------------------------------|
 D|---2---5/7-7-7---5/7-7-7\5x--------------|
 A|---2---5/7-7-7---5/7-7-7\5x--------------|
 E|---0---3/5-5-5---3/5-5-5\3x--------------|


Who You Drivin' Now


Hey hey hey hey hey girl

Watch what you're doing
The way you keep running around
Gonna be a ruined
Driving reckless in your pinto
Full tank of gas
When you kick me around, girl
Gonna be one hell of a crash
Hey hey hey hey hey hey
Who you drivin' now

Hey hey hey hey hey girl
Wrap him around your finger
All the boys follow you
But you don't have to see her
You're drivin' my t-bird
But the gauge is on empty
You're going nowhere fast
You got no fuel left
Hey hey hey hey hey hey
who you drivin' now

Hey hey hey hey hey hey 
Who you drivin'
Hey hey hey hey hey hey 
Who you drivin' 
Hey hey hey hey hey hey 
Who you drivin' 
Hey hey hey hey hey hey 
Who you drivin' now 
Now
Comments