Ash - Starcrossd Chords & Tabs

 

Starcrossd Chords & Tabs

Ash Chords & Tabs

Version: 2 Type: Tab 0 ratings
1 star 2 stars 3 stars 4 stars 5 stars
comments

Starcrossd Tab

   
this is one of my favorite ash songs
(but girl from mars is much better)

intro
e|-----------------------------|
B|-----6--8-----6h-8-----6h-8--|
G|--9--------9--------9--------|
D|-----------------------------|x10
A|-----------------------------|
E|-----------------------------|

verse 1
e|-1----0--1----|
B|-1----1--1----|
G|-2----0--2----|
D|-3-x2-2--3-x2-|x2
A|-3----3--3----|
E|-1-------1----|

e|-0--1--0----1-1-1-1-1-1-1-1-|
B|-1--1--0----1-1-1-1-1-1-1-1-|
G|-2--2--0----2-2-2-2-2-2-2-2-|
D|-2--3--2-x2-3-3-3-3-3-3-3-3-|
A|-0--3--2----3-3-3-3-3-3-3-3-|
E|----1--0----1-1-1-1-1-1-1-1-|

e|-0-0-0-0-0-0-0-0-0--1-1-1-1-1-1-1-1-|
B|-1-1-1-1-1-1-1-1-1--3-3-3-3-3-3-3-3-|
G|-0-0-0-0-0-0-0-0-0--2-2-2-2-2-2-2-2-|
D|-2-2-2-2-2-2-2-2-2--0-0-0-0-0-0-0-0-|
A|-3-3-3-3-3-3-3-3-3------------------|
E|------------------------------------|

e|-3-3-3-3-3-3-3-3-|
B|-3-3-3-3-3-3-3-3-|
G|-0-0-0-0-0-0-0-0-|
D|-0-0-0-0-0-0-0-0-|
A|-2-2-2-2-2-2-2-2-|
e|-3-3-3-3-3-3-3-3-|

chorus
e|-----------------------------------------------|
B|-----------------------------------------------|
G|-5-5-5-5-5-------------10-10-10-10-10-10-10-10-|
D|-5-5-5-5-5--5-5-5-5-5--10-10-10-10-10-10-10-10-|x2
A|-3-3-3-3-3--5-5-5-5-5--8--8--8--8--8--8--8--8--|
E|------------3-3-3-3-3--------------------------|

e|-----------------------1-1-1-1-1-1-1-1-|
B|-----------------------3-3-3-3-3-3-3-3-|
G|-5-5-5-5-5-------------2-2-2-2-2-2-2-2-|
D|-5-5-5-5-5--5-5-5-5-5--0-0-0-0-0-0-0-0-|
A|-3-3-3-3-3--5-5-5-5-5------------------|
E|------------3-3-3-3-3------------------|
[ Tab from: http://www.guitartabs.cc/tabs/a/ash/starcrossd_tab_ver_2.html ]
e|-0-0-0-0-0-0-0-0-----------------------|
B|-0-0-0-0-0-0-0-0-----------------------|
G|-0-0-0-0-0-0-0-0--10-10-10-10----------|
D|-2-2-2-2-2-2-2-2--10-10-10-10--5-5-5-5-|
A|-2-2-2-2-2-2-2-2--8--8--8--8---5-5-5-5-|
E|-0-0-0-0-0-0-0-0---------------3-3-3-3-|

verse 2
e|-1-~-1-~-----1-~-1-~-0-~-0-~-1-~-0-~-0-~-1-~-0-~-|
B|-1-~-1-~-----1-~-1-~-1-~-1-~-1-~-0-~-0-~-1-~-1-~-|
G|-2-~-2-~-----2-~-2-~-0-~-2-~-2-~-0-~-0-~-2-~-0-~-|
D|-3-~-3-~-5-~-3-~-3-~-2-~-2-~-3-~-2-~-2-~-3-~-2-~-|
A|-3-~-3-~-5-~-3-~-3-~-3-~-0-~-3-~-2-~-2-~-3-~-3-~-|
E|-1-~-1-~-3-~-1-~-1-~---------1-~-0-~-0-~-1-~-----|

e|-1-~-1--3-3-3-3-3-3-3-3--|
B|-3-~-3--3-3-3-3-3-3-3-3--|
G|-2-~-2--0-0-0-0-0-0-0-0--|
D|-0-~-0--0-0-0-0-0-0-0-0--|
A|--------2-2-2-2-2-2-2-2--|
E|--------3-3-3-3-3-3-3-3--|

chorus
leave out last G5

solo
e|----------------------------------------|
B|--12b13------------12b13----------------|
G|--------12-10-9----------12-10-9-9h10-~-|
D|----------------------------------------|
A|----------------------------------------|
E|----------------------------------------|

e|----------------------------------------|
B|----------------------------------------|
G|-10--12b14-14r12-10---------------------|
D|----------------------------------------|
A|----------------------------------------|
E|----------------------------------------|

e|----------------------------------------|
B|-12b13------------12b13-----------------|
G|--------12-10-9----------12-10-9-9h10-~-|
D|----------------------------------------|
A|----------------------------------------|
E|----------------------------------------|

e|--------------------------------------|
B|-----------------------13--13---------|
G|--10-12b14-14b12-12b14---14--14-14r12-|
D|--------------------------------------|
A|--------------------------------------|
E|--------------------------------------|

~=let ring
B=bend
r=repeat a lot

hope its use to someone
david
Comments