Ash - Sometimes Chords & Tabs

 

Sometimes Chords & Tabs

Ash Chords & Tabs

Version: 1 Type: Tab 0 ratings
1 star 2 stars 3 stars 4 stars 5 stars
comments

Sometimes Tab

ARTIST: ASH
SONG: SOMETIMES
ALBUM: FREE ALL ANGELS

TAB BY: PADDY O'REILLY (jaywalker1985@hotmail.com)

i saw someone elses version of this riff, and although it is correct, it is played
on different strings on the fretboard and does not have the correct soundings,
i decided to work it out for myself, and i think this version sounds better.

any comments, corrections or complaints, email me!

intro + main riff:

this timing is not correct listen to the song for the timings,

standard tuning (EADGBE)

E------9----9----9----9---9-10-9--------------------------------|
B---10---10---10---10---10--------------------------------------|
G---------------------------------------------------------------|  intro riff
D---------------------------------------------------------------|   
A---------------------------------------------------------------|
E---------------------------------------------------------------|

[ Tab from: http://www.guitartabs.cc/tabs/a/ash/sometimes_tab.html ]
E-------------------------|------------------------------------------------|
B-------------------------|------------------------------------------------|
G-----9--7-6-6-6-6-6-6----|----9--7--6-6-6-6-6-6-b6------------------------|
D---9------------------6--|--9---------------------------------------------|
A-------------------------|------------------------------------------------|
E-------------------------|------------------------------------------------|


E--------------------------------------------------------------------------|
B--------------------------------------------------------------------------|
G------9--7-6-6-6-6-6-6----6-7-6-------------------------------------------|
D---9-------------------6--------7-7-9-7-----------------------------------|
A--------------------------------------------------------------------------|
E--------------------------------------------------------------------------|
 

 



 
Comments