Ash - Orpheus Chords & Tabs

 

Orpheus Chords & Tabs

Ash Chords & Tabs

Version: 3 Type: Tab 0 ratings
1 star 2 stars 3 stars 4 stars 5 stars
comments

Orpheus Tab

   
 Artist: Ash
 Album: Meltdown
 Song: Orpheus

  Intro part 1                   (played quickly)
e----------------------------------|
B----------------------------------|
G----------------------------------|
D----------------------------------|      play 4 times  (use distortion)
A-7-5-7-5h7-7-5-7-5-7-{5-7-5-------|
E---------------------{------7-5-0-|

                      (played quickly)
e----------------------------------|
B----------------------------------|
G----------------------------------|
D-9-7-9-7/9-9-7-9-7-9--------------|      play 4 times  (use phaser)
A-7-5-7-5/7-7-5-7-5-7-{5-7-5-------|
E---------------------{------7-5-0-|
[ Tab from: http://www.guitartabs.cc/tabs/a/ash/orpheus_tab_ver_3.html ]
 Main riff
e-------------------|
B-------------------|
G-------------------|
D-9-7-7/9-9\4-------|      play 4 times  (use distortion)
A-7-5-5/7-7\2-------|
E-------------3-2-0-|

 Verse
e----------------------------------------------------|
B----------------------------------------------------|
G----------------------------------------------------|
D-9-9-9-9-9-9-------9\7-7-7-7-7-14-14-14-14p12-------|    played 4 times
A-7-7-7-7-7-7-5-4-2-7\5-5-5-5-5----------------14-12-|
E----------------------------------------------------|


 The chorus is basically
  F#m    B
  A      E
  C#m    B
  A      B


 That's it bar a few little bits which are already tabbed here. Any corrections, please 
me at el_capitano00@yahoo.co.uk.  Chow...
Comments