Ash - Jack Names The Planets Chords & Tabs

 

Jack Names The Planets Chords & Tabs

Ash Chords & Tabs

Version: 2 Type: Bass Tab 0 ratings
1 star 2 stars 3 stars 4 stars 5 stars
comments

Jack Names The Planets Bass Tab

   
Song Title: Jack Names the Planets
Artist: Ash
----------------------------------------------

BASS TAB  Written by: Jeff Mitchell (remitch@ix.netcom.com) & Joel Ribble

Jack Names the Planets by Ash

1st VERSE:

G-------------------------------  Play 12 times after Lead guitar solo
D-------------------------------
A-------------------------------
E-0-0-0-7-7-7-7-7-0-0-0-5-5-5-5  

CHORUS: 
	 
G----------------------- 	  Play 3 times	
D-----------------------			
A-----3-3-3-------5-5-5-		
E-3-3-------5-5-5-------	

G--------------------- 
D---------------------
A-6---------8---------
E---6-6-6-6---8-8-8-8-

2nd & 3rd verse
[ Tab from: http://www.guitartabs.cc/tabs/a/ash/jack_names_the_planets_btab_ver_2.html ]
G-------------------------------  Play 8 Times 
D-------------------------------
A-------------------------------
E-0-0-0-7-7-7-7-7-0-0-0-5-5-5-5-

CHORUS:

G----------------------- 	  Play 3 times
D-----------------------
A-----3-3-3-------5-5-5-
E-3-3-------5-5-5-------

G---------------------            2nd verse play once
D---------------------		  3rd verse play 4 times
A-6---------8---------
E---6-6-6-6---8-8-8-8-  <--After third verse, this is end

G-----------------------------    2nd verse ONLY: play 4 times
D-------9-9-9-9-7-7-7-9-9-9-9-
A-7-7-7-----------------------
E-----------------------------

G----------------------- 	  Play 3 times
D-----------------------
A-----3-3-3-------5-5-5-
E-3-3-------5-5-5-------

G---------------------     
D---------------------
A-6---------8---------
E---6-6-6-6---8-8-8-8-


Submitted by:  Jeff Mitchell (remitch@ix.netcom.com)

Comments