Ash - Burn Baby Burn Chords & Tabs

 

Burn Baby Burn Chords & Tabs

Ash Chords & Tabs

Version: 4 Type: Tab 0 ratings
1 star 2 stars 3 stars 4 stars 5 stars
comments

Burn Baby Burn Tab

   
Artist: Ash
Track: Burn Baby Burn
Album: Free all angels
Tabbed by Mark Brown
INTRO:

Guitar1:
--11----11----11----11----11----11----11----11h12--
-----12----12----12----12----12----12----12--------
---------------------------------------------------
---------------------------------------------------
---------------------------------------------------
---------------------------------------------------

--11----11----11----11----11----11----11--11h12--11-
-----12----12----12----12----12----12---------------
----------------------------------------------------repeat
----------------------------------------------------
----------------------------------------------------
----------------------------------------------------

Guitar2: starts later
  B5  E5  C#5 F#5
-----------------
-----------------
--4-------6------repeat
--4---2---6---4--
--2---2---4---4--
------0-------2--


VERSE1:

  B5  E5  C#5 F#5          E5   F#5
------------------------------------
------------------------------------
--4-------6------repeat+PM--9---11--
--4---2---6---4-------------9---11--
--2---2---4---4-------------7---9---
------0-------2---------------------

  B5  E5 C#5   F#5         E5
------------------------------
------------------------------
------9--------11--repeat--9--
--9---9---11---11----------9--
--9---7---11---9-----------7--
--7-------9-------------------


CHORUS:

 F#5 B5   E5  A5        F#5  B5
--------------------------------
--------------------------------
------4-------2--------------4--
--4---4---2---2--repeat--4---4--
--4---2---2---0----------4---2--
--2-------0--------------2------

------------------
------------------
--5---7---9---11--
--x---x---x---x---
--3---5---7---9---
------------------
there are different effects in the same time


VERSE2:

Guitar1:
--11----11----11----11----11----11----11----11h12--
-----12----12----12----12----12----12----12--------
---------------------------------------------------
---------------------------------------------------
---------------------------------------------------
---------------------------------------------------

--11----11----11----11----11----11----11--11h12--11-
-----12----12----12----12----12----12---------------
----------------------------------------------------
----------------------------------------------------
----------------------------------------------------
----------------------------------------------------

Guitar2:
  B5  E5  C#5 F#5
-----------------
-----------------
--4-------6------repeat
--4---2---6---4--
--2---2---4---4--
------0-------2--

Guitar1: let ring
-------------------------
-------------------------
--8------8---------------repeat
----9--9---11--9--11--9--
-------------------------
-------------------------
[ Tab from: http://www.guitartabs.cc/tabs/a/ash/burn_baby_burn_tab_ver_4.html ]
Guitar2:
  B5  E5  C#5 F#5          E5   F#5
------------------------------------
------------------------------------
--4-------6------repeat+PM--9---11--
--4---2---6---4-------------9---11--
--2---2---4---4-------------7---9---
------0-------2---------------------

  B5  E5 C#5   F#5         E5
------------------------------
------------------------------
------9--------11--repeat--9--
--9---9---11---11----------9--
--9---7---11---9-----------7--
--7-------9-------------------


CHORUS:

 F#5 B5   E5  A5        F#5  B5
--------------------------------
--------------------------------
------4-------2--------------4--
--4---4---2---2--repeat--4---4--
--4---2---2---0----------4---2--
--2-------0--------------2------

---------
---------
--5---7--
--x---x--
--3---5--
---------
there are different effects in the same time


SOLO:

Guitar1: effects
--12--11---------------------------12--11--11s18s--
---------11--12------------------------------------
----------------11--13--9--11--x3------------------
---------------------------------------------------
---------------------------------------------------
---------------------------------------------------

Guitar2:
  B5  E5  C#5 F#5
-----------------
-----------------
--4-------6------repeat
--4---2---6---4--
--2---2---4---4--
------0-------2--


BRIDGE:

Guitar1: effects
--12--11-------------------12--11---------
---------11--12-------------------11--12--
----------------11--13--9-----------------
------------------------------------------
------------------------------------------
------------------------------------------

Guitar2:
  E5 F#5           C#5
-----------------------
-----------------------
--------------------6--
--2---4--repeat+PM--6--
--2---4-------------4--
--0---2----------------


VERSE3:

Guitar1:
-------------
--11h12s14s--
-------------
-------------
-------------
-------------

Guitar2:
  B5  E5 C#5   F#5         E5
------------------------------
------------------------------
------9--------11--repeat--9--
--9---9---11---11----------9--
--9---7---11---9-----------7--
--7-------9-------------------


CHORUS:

 F#5 B5   E5  A5        F#5  B5
--------------------------------
--------------------------------
------4-------2--------------4--
--4---4---2---2--repeat--4---4--
--4---2---2---0----------4---2--
--2-------0--------------2------

----------------------------------------------------------
----------------------------------------------------------
--5--7--9--11--12--14--16--17------------------14--16--17-
--x--x--x--x---x---x---x---x---12--14--16--17--x---x---x--
--3--5--7--9---10--12--14--15--x---x---x---x---12--14--15-
-------------------------------10--12--14--15-------------
there are different effects in the same time

  E5
-----
-----
--9--
--9--
--7--
-----
Comments