Asg - Southern Lord Chords & Tabs

 

Southern Lord Chords & Tabs

Asg Chords & Tabs

Version: 1 Type: Tab

Southern Lord Tab

-------------------------------------------------------------------------------
			     SOUTHERN LORD-ASG
-------------------------------------------------------------------------------
Tabbed by: MCR-LZ
Email: dylan.kappler@gmail.com

Tuning: drop all a bit...possibly half step...not sure sry...i'll update the tuning 
once i find out exactly what i did lol
[ Tab from: http://www.guitartabs.cc/tabs/a/asg/southern_lord_tab.html ]
e|-----------------------------------------------------------------------------|
B|-----------------------------------------------------------------------------|
G|-----------------------------------------------------------------------------|
D|--2-------9-10-9p10-9-7-------222-----9--10--9-------------------------------|
A|--2----------------------------222-----9--10--9------------------------------|
E|--0----------------------------000-----7--8--7-------------------------------|

e|-----------------------------------------------------------------------------|
B|-----------------------------------------------------------------------------|
G|-----------------------------------------------------------------------------|
D|-----------------------------------------------------------------------------|
A|------------------------22---------------------------------------------------|
E|--15--15---19--15--19-----19--22--10101010--14--10---15--22--19--------------|

all of it x4

i'm working on the rest...tough stuff. btw, the way to counte the "10101010" is...2 of 
other notes on it's section put together... a.k.a. played faster.

p= like just put your finger down on w/e note is after the "p" really fast and then let go really fast.
===============================================================================