As I Lay Dying - Reinvention Chords & Tabs

 

Reinvention Chords & Tabs

As I Lay Dying Chords & Tabs

Version: 1 Type: Bass Tab 0 ratings
1 star 2 stars 3 stars 4 stars 5 stars
comments

Reinvention Bass Tab

   
As I Lay Dying - Reinvention

Good song from the American Tragedy Split.  This should be 100% correct,
and as always email me for more tabs:

ScorpDave@aol.com

Standard Tuning E, A, D, G

* = Let ring

Introduction (0:00)
G|--------------00|
D|----------6*----|
A|-33--33---------| x1
E|----------------|

Chorus (0:09)
G|---------------------------------|
D|------------3101-----------------|
A|333333333333-----------1------11-| x4
E|----------------4444444-333344---|

Post-Chrous (0:50)
G|-------1*----------------|
D|-------------------------|
A|3*-----------------------| x2
E|--------------3*----1*---|

Chorus (1:09)
G|---------------------------------|
D|------------3101-----------------|
A|333333333333-----------1------11-| x2
E|----------------4444444-333344---|

Pre-Breakdown (1:30)
G|------|
D|------|
A|3333--|
E|------|

(Find an approrpriate rythm for the Breakdown)

Breakdown (1:33)
G|-----------|
D|-----------|
A|333-3-3333-| x8 
E|-----------|

Breakdown (1:46)
G|--------|
D|--------|
A|333-3-4-| x8
E|--------|
[ Tab from: http://www.guitartabs.cc/tabs/a/as_i_lay_dying/reinvention_btab.html ]
Post-Breakdown (2:00)
G|---------------------------|
D|----103----103----10----103|
A|333----333----------3------| x4
E|--------------444----333---|
                               
Post-Breakdown (2:25)
G|--------------1111----0000-|
D|---------------------------|
A|3333----3333---------------| x2
E|---------------------------|

Fill (2:38)
G|------|
D|------|
A|3*---3|
E|------|

Chorus (2:44)
G|---------------------------------|
D|------------3101-----------------|
A|333333333333-----------1------11-| x2
E|----------------4444444-333344---|

Breakdown 2 (3:04)
G|-------11-1-11-00-0-00-------|
D|----------------------33-33-3|
A|33-3-33----------------------| x2
E|-----------------------------|

Fill 2 (3:25)
G|---------------------|
D|---------------------|
A|3*--------3*--------3| x1
E|---------------------|

(No Bass for a while, but if you feel the need to play,
You can play the High C on the G string in quarters)

Verse 2 (4:14)
G|--------------------------111000|
D|------------31030---------------| 
A|3*-333-3*-33-----3333-3-33------| x3
E|--------------------------------|

End (4:44)
G|-------|
D|-------|
A|3*-----|
E|-------|
Comments