As I Lay Dying - Falling Upon Deaf Ears Chords & Tabs

 

Falling Upon Deaf Ears Chords & Tabs

As I Lay Dying Chords & Tabs

Version: 2 Type: Tab 0 ratings
1 star 2 stars 3 stars 4 stars 5 stars
comments

Falling Upon Deaf Ears Tab

As I Lay Dying
Falling Upon Deaf Ears

Tuning (low to high: cgcfad)
Almost all the other version is right...but this is perfect I watched them live
Intro

Gtr.1
|------------------------|
|------------------------|
|------------------------|
|------------------------|
|-0~--0~--0~~~~~~~~~-----|
|-0~--0~--0~~~~~~~~~-----|

Gtr.2
|------------------------------------------------------------------------------|
|------------------------------------------------------------------------------|
|------------------------------------------------------------------------------|
|------------------------------------------------------------------------------|
|-0~--0~--8-7-------------8-7--------------8-7-------------8-7-5-0-10-8-7-0----|
|-0~--0~------0-0-8-7-0-0-----0-0-8-7-5-0------0-0-8-7-0-0---------------------|
PM.           - -     - -     - -              - -     - -

1st verse is same as intro except this...

Gtrs.1&2 (first 2)
|-------------------------------------------|
|-------------------------------------------|
|-------------------------------------------|
|-------------------------------------------|
|-8-7-------------8-7-----------------------|
|-----0-0-8-7-0-0-----0-0-8888-5555---------|
PM    - -     - -     - - ---- ----

Gtr 2
|---------------------------------------------------------------------------------|
|---------------------------------------------------------------------------------|
|---------------------------------------------------------------------------------|
|---------------------------------------------------------------------------------|
|-12-10---------------12-10----------------12-10---------------12-10-8-0-13-12-10-|
|-------0-0-12-10-0-0-------0-0-8888-5555--------0-0-12-10-0-0--------------------|
PM      - -       - -       - - ---- ----
[ Tab from: http://www.guitartabs.cc/tabs/a/as_i_lay_dying/falling_upon_deaf_ears_tab_ver_2.html ]
Gtrs.1&2
|-----------------------------------------------------------------|
|-----------15----------15----------15----------19----------------|
|-----------19----------19----------19----------15----------------|
|-----------0-----------0-----------0-----------0-----------------|
|-0-0-0-0-0---0-0-0-0-0---0-0-0-0-0---0-0-0-0-0-------------------|
|-0-0-0-0-0---0-0-0-0-0---0-0-0-0-0---0-0-0-0-0-------------------|

Gtr.2 (Gtr.1 continues playing above riff)
|----------------------------------------------------------------|
|----------------------------------------------------------------|
|----12/14\10~--9/10-7-------------------------------------------|
|-----X--X-X----X----X-------------------------------------------|
|-8~-10/12\8~---7/8--5--Gtr.2-plays-this--8~-10~-7~--------------|
|-8~--------------------------------------8~-10~-7~--------------|

Gtr.1
|-----------------------|
|-----------------------|
|-----------------------|
|-----------------------|
|-0~--5~--8~--7~--------|
|-0~--5~--8~--7~--------|

Gtr.2
|-----------------------------------------|
|-----------------------------------------|
|-----------------------------------------|
|-----------------------------------------|
|-----888877778888-(repeats-this)---------|
|-----------------------------------------|

SOLO!!!!!

Gtr.1
|-----------------------------------------------------------------------------------------------|
|-----------------------------------------------------------------------------------------------|
|-----------------------------------------------------------------------------------------------|
|-14h15p14-------17-15-14h15-14h15p14-14----------14h15p15-------17-15-14-19-17-15-17-15-14h15--|
|----------17-15-------------------------17-15-17----------17-15--------------------------------|
|-----------------------------------------------------------------------------------------------|

|--------------------------------------------------------------------------------------------|
|--------------------------------------------------------------------------------------------|
|--------------------------------------------------------------------------------------------|
|-14h15p14-------17-15-14h15-14h15p14-14-----------------0-3-5-------0-3-5-------0-3-5--5~~--|
|----------17-15-------------------------17-15-17--0-3-5-------0-3-5-------0-3-5-------------|
|--------------------------------------------------------------------------------------------|
PINCH HARMONIC                                                        -
Comments