As I Lay Dying - Elegy Chords & Tabs

 

Elegy Chords & Tabs

As I Lay Dying Chords & Tabs

Version: 2 Type: Tab 0 ratings
1 star 2 stars 3 stars 4 stars 5 stars
comments

Elegy Tab

-------------------------------------------------------------------------------
			     Elegy ver2 - As I Lay Dying
-------------------------------------------------------------------------------
Tabbed by:shawn
Email: thricesevenfold@hotmail.com

Tuning:cgcfad
intro

d|---------------------------------------------------------------------------|
a|---------------------------------------------------------------------------|
f|---------------------------------------------------------------------------|
c|-------------------0-----------------8/10-878-7h8p7------------------------|
g|-..-8p7p0-10p8p0-.-0--.-8p7p0-10p8p0----------------8/10-878---------------|
c|-00--------------0-0--0----------------------------------------------------|

d|---------------------------------------------------------------------------|
a|---------------------------------------------------------------------------|
f|-------------------------------------------.-.--.---.-.-.------------------|
c|-------------------0-------------------.-.-7-8-.7-.10-8-7.--.-.-.----------|
g|-..-8p7p0-10p8p0-.-0--.-8p7p0-10p8p0---5-8----10--8------8-10-7-8----------|
c|-00--------------0-0--0----------------------------------------------------|

d|---------------------------------------------------------------------------|
a|---------------------------------------------------------------------------|
f|---------------------------------------------------------------------------|
c|-------------------0-----------------8/10-878-7h8p7------------------------|
g|-..-8p7p0-10p8p0-.-0--.-8p7p0-10p8p0----------------8/10-878---------------|
c|-00--------------0-0--0----------------------------------------------------|

d|---------------------------------------------------------------------------|
a|---------------------------------------------------------------------------|
f|-------------------------------------------.-.--.---.-----.-----.----------|
c|-------------------0-------------------.-.-7-8-.7-.10-----7-7---3-3--------|
g|-..-8p7p0-10p8p0-.-0--.-8p7p0-10p8p0---5-8----10--8-------7-7---3-3--------|
c|-00--------------0-0--0-----------------------------------7-7---3-3--------|

verse     X6
d|---------------------------------------------------------------------------|
a|---------------------------------------------------------------------------|
f|---------------------------------------------------------------------------|
c|----7-8--7-----------------------7-8---7--10-8-7-8-7-5-7-------------------|
g|-5-8---10-8-----...-...-...--5-8----10--8----------------------------------|
c|------------0-0-000-000-000------------------------------------------------|

pre chorus X2
d|---------------------------------------------------------------------------|
a|---------------------------------------------------------------------------|
f|---------------------------------------------------------------------------|
c|--------------------------------------------------------10-8-7-------------|
g|-..-5-.-5h8-.-3-.-10-8-7-8-7-5--..-5-.-5h8-.-3-.-10-8-7--------------------|
c|-00---0-----0---0---------------00---0-----0---0---------------------------|

d|---------------------------------------------------------------------------|
a|---------------------------------------------------------------------------|
f|---------------------------------------------------------------------------|
c|----------------------------------------------8--88---10--1010-------------|
g|-..-5-.-5h8-.-3-.-10-8-7-8-7-5--..-5-.-5h8-.--8--88---10--1010-------------|
c|-00---0-----0---0---------------00---0-----0--8--88---10--1010-------------|

chorus gtr1   X2
[ Tab from: http://www.guitartabs.cc/tabs/a/as_i_lay_dying/elegy_tab_ver_2.html ]
d|---------------------------------------------------------------------------|
a|---------------------------------------------------------------------------|
f|---------------------------------------------------------------------------|
c|--8888-8888-8888-8880~---------8888-8888-8888-8880~-----10~----------------|
g|--8888-8888-8888-8880~---------8888-8888-8888-8880~-----10~----------------|
c|--8888-8888-8888-8880~---------8888-8888-8888-8880~-----10~----------------|

chorus gtr2 after 1 above x1


d|--------------------------------------------------------------------------|
a|--------------------------------------------------------------------------|
f|-10---9---7\9-7-5-7-77--77--7777--10---9---10101012--12--12-10910~--------|
c|---x8--x7---------------------------x8--x4--------------------------------|
g|-8----7---5\7-5-3-5-55--55--5555--8----7---8-8-8-10--10--10-8-7-8~--------|
c|--------------------------------------------------------------------------|
repeat intro 

breakdown gtr 1 8X


d|---------------------------------------------------------------------------|
a|---------------------------------------------------------------------------|
f|---------------------------------------------------------------------------|
c|---...-.-.-...-...----...-.-...-...----------------------------------------|
g|---000-0-0-000-000----000-0-000-000----------------------------------------|
c|---000-0-0-000-000----000-0-000-000----------------------------------------|

gtr 2 comes in after 1x


d|----------------------------------------|-----------------------------------|
a|----------------------------------------|-----------------------------------|
f|----------------------------------------|-----------------------------------|
c|---...-.-.-...-...----...-.-...-...-x4--|------7-8----7---10-8-7----------x3|
g|---000-0-0-000-000----000-0-000-000-----|--5-8-----10---8--------8-10-7-8---|
c|---000-0-0-000-000----000-0-000-000-----|-----------------------------------|

pre chorus 1x

chorus    2x	

ending gtr 1


d|---------------|--------------------------------|--|
a|---------------|--------------------------------|--|
f|---------------|--------------------------------|--|
c|---8~----0~----|--8------0-----8-----0----10----|x2|
g|---8~----0~-x4-|--8-x-16-0-x16-8-x16-0-x8-10-x8-|--|
c|---8~----0~----|--8------0-----8-----0----10----|--|

d|--------------------------------------------------------------------------|
a|--------------------------------------------------------------------------|
f|-10---9---7\9-7-5-7-77--77--7777--10---9---10101012--12--12-10910~--------|
c|---x8--x7---------------------------x8--x4--------------------------------|x5
g|-8----7---5\7-5-3-5-55--55--5555--8----7---8-8-8-10--10--10-8-7-8~--------|
c|--------------------------------------------------------------------------|

ending gtr2 8x


d|---------------------------------------------------------------------------|
a|---------------------------------------------------------------------------|
f|-------14-15----14----17-15-14----14---------------------------------------|
c|-12-15-------17----15----------17---15-17-14-15----------------------------|x3
g|---------------------------------------------------------------------------|
c|---------------------------------------------------------------------------|


d|---------------------------------------------------------------------------|
a|-------------------------15------------------------------------------------|
f|-------14-15----14----17----17-15-14----14---------------------------------|
c|-12-15-------17----15----------------17----15-17---------------------------|
g|---------------------------------------------------------------------------|
c|---------------------------------------------------------------------------|
Comments